Guitar Tabs
song title    band name

Join Us Today!

Don't strum alone...
be a part of the largest online Christian music community. Browse thousands of guitar tabs and chat w/ musicians like yourself.


It's Free!

This tab has been rated a 3.75 out of 5 for accuracy. (4 votes)Sorry, but you must be logged in to rate this tab.
Click here to log-in, or you can click here to register.
(Registration is free)

All songs owned by corresponding publishing company. If you make copies of any song on this website, be sure to report your usage to CCLI.
Submitted by: NXT2HIM'02

(C) 2004 Elektra records 
Artist: Blindside
Album: About A Burning Fire
Song: Track 7 "Die Buying"

Play this Riff 10x's during the verses:

e-------------------------------
b-------------------------------
G-------------------------------
D---------4--5--4-2-0-----------
A--2-2-2--------------2---------
E-----------------------0-0-0-0-

After you play the Verse Play the Pre-Chorus Below:

e-------------------------
b-------------------------
G------5--4-----5--4------
D--7---5--4--7--5--4------
A--7---3--2--7--3--2------
E--5---------5------------  
   ^         ^
*strum 577 10x's* 

+++:I tryed the best I could to come close to getting
the Chorus tabbed right and I know how no one likes
bad tabs but this was the best I could do.You might 
want to listen to the CD and see how it sounds. 

Play Chorus 4x's and it's played fast:

e-----------------------------------------
b-----------------------------------------
G--12--11-12--14--12--11-12--14--12-9--11-
D--12--11-12--14--12--11-12--14--12-9--11-
A--10--9--10--12--10--9--10--12--10-7--9--
E-----------------------------------------

+++:This Whole Thing repeats then goes into a
Bridge.

For the Bridge each note gets 16 beats and you play
this rhythm from 2:04 in the song till 2:26.

e-7-8--------
b------------
G------------
D------------
A------------
E------------

+++: The song goes into the intro, which is played 4x's, 
then play the Pre-Chorus and the Chorus to the End on

e-----
b-----
G--12-
D--12-
A--10-
E-----  

Hope you enjoy this fun active song for your jamming 
pleasure brought to you from the services of a Follower
of Christ. Thanks-

Any Questions or if you just wanna talk.
Email: jdc10_27@juno.com
AIM:GoodwillEfeKt




Comments about this tab

Bobsnox - 2004-05-12

The intro is right, but the chorus is not played that high up. It's just E G A G E G C (all bar chords other than E; or the E G C part is actually played as the standard chords by Simon himself).


unknown - 2004-05-15

Corrected intro:

e------------------------------
b------------------------------
G------------------------------
D----------4--5--4-------------
A--2-2-2----------2-0----------
E---------------------3-0-0-0--


Bobsnox - 2004-06-22

My bad, the second intro was right. Read it too fast.


guitarguy1020 - 2004-10-30

try
|-444-------------------|
|-444-4-5-4-2-0---------|
|-222-----------2-0-----|
|-------------------2-0-|


GFORG - 2004-12-16

I think I got a little closer to the chrous

--------------------------0-----
--------------------------0-----
--------------------------0-----
-2--4--5---7--5--2---4-5--10----
-2--4--5---7--5--2---4-5--10----
-0--2--3---5--3--0---2-3--8-----


rock4christ08 - 2005-02-11

guitarguy, stick with the intro that second guy gave, it's 100% correct, it's elbueno. trust me -averyconcernedcitizen


Add a comment/correction

Complimentary Christian Ringtones
Dadamobile and CGR have teamed up to bring your favorite Christian artists right to your phone. Sign up today and get 10 complementary ringtones!
Tab Country
Did you know CGR has a sister site w/ country guitar tabs? Well we do! Its called Tab Country. It has a great archive with a lot of country tabs.
Rockin Tabs
Are you looking for a site that has rock guitar tabs? Then Rockintabs.com is the place for you. It is a budding site with many rock guitar tabs. Submit your tab today.
Tab Gallery
Tab Gallery has a compilation of christian, rock, and country tabs all in one place. Come visit us.