Guitar Tabs
song title    band name

Join Us Today!

Don't strum alone...
be a part of the largest online Christian music community. Browse thousands of guitar tabs and chat w/ musicians like yourself.


It's Free!

This tab has been rated a 4.80 out of 5 for accuracy. (5 votes)Sorry, but you must be logged in to rate this tab.
Click here to log-in, or you can click here to register.
(Registration is free)

All songs owned by corresponding publishing company. If you make copies of any song on this website, be sure to report your usage to CCLI.
Submitted by: NewDayRising

Artist  : Todd Agnew
Album   : Grace Like Rain      
Song    : This Fragile Breathe
Tuning  : D A D G B E

This Version is Complete with Fills on Choruses, In order from begining to end
with all chords.

Intro :

Gt 1
E|-----------------0-------------------2-------------------------|
B|--3--------------2-------------------3-------------------------|
G|--2--------------2-------------------4-------------------------|
D|--0--------------2-------------------4---4-5-------------------|
A|--0--------------0-------------------2---4-5-------------------|
D|--0--------------------------------------4-5-------------------|
           
Gt 2                                                   
E|---------------------------------------------------------------|
B|---------------------------------------------------------------|
G|--7---/9-/11-\9-\6---\12-\11-\9-/11-\4-------------------------|
D|--x--------------x-------------------x---4-5-------------------|
A|--5---/7-/9--\7-\4---\10-\9--\7-/9--\2---4-5-------------------|
D|-----------------------------------------4-5-------------------|

Verse :

E|-------0---2-------------0---2---------------------------------|
B|---3---2---3---------3---2---3---------------------------------|
G|---2---2---4---------2---2---4---------------------------------|
D|---0---2---4---4-5---0---2---4---4-5---4-4-4-4-5-5-5-5---------|
A|---0---0---2---4-5---0---0---2---4-5---4-4-4-4-5-5-5-5---------|
D|---0-----------4-5---0-----------4-5---4-4-4-4-5-5-5-5---------|

Chorus :

E|-------0---2-------------0---2-------------0---2---------------|
B|---3---2---3---------3---2---3---------3---2---3---------------|
G|---2---2---4---------2---2---4---------2---2---4---------------|
D|---0---2---4---4-5---0---2---4---4-5---0---2---4---4--5--------|
A|---0---0---2---4-5---0---0---2---4-5---0---0---2---4--5--------|
D|---0-----------4-5---0-----------4-5---0-----------4--5--------|

Riff :

E|---------------------------------------------------------------|
B|----------------8-8-7-5-7--------------------------------------|
G|--------------------------7------------------------------------|
D|---------------------------------------------------------------|
A|---------------------------------------------------------------|
D|---------------------------------------------------------------|

Verse :

E|-------0---2-------------0---2---------------------------------|
B|---3---2---3---------3---2---3---------------------------------|
G|---2---2---4---------2---2---4---------------------------------|
D|---0---2---4---4-5---0---2---4---4-5---4-4-4-4-5-5-5-5---------|
A|---0---0---2---4-5---0---0---2---4-5---4-4-4-4-5-5-5-5---------|
D|---0-----------4-5---0-----------4-5---4-4-4-4-5-5-5-5---------|

Chorus :

E|-------0---2-------------0---2-------------0---2---------------|
B|---3---2---3---------3---2---3---------3---2---3---------------|
G|---2---2---4---------2---2---4---------2---2---4---------------|
D|---0---2---4---4-5---0---2---4---4-5---0---2---4---4--5--------|
A|---0---0---2---4-5---0---0---2---4-5---0---0---2---4--5--------|
D|---0-----------4-5---0-----------4-5---0-----------4--5--------|

Riff :

E|---------------------------------------------------------------|
B|----------------8-8-7-5-7--------------------------------------|
G|--------------------------7------------------------------------|
D|---------------------------------------------------------------|
A|---------------------------------------------------------------|
D|---------------------------------------------------------------|


Bridge :

E|---------------------------------------------------------------|
B|-------------------7-7-7-7-------------------------------------|
G|-------------------6-6-6-6-------------------------------------|
D|---4-4--4-4/5-5----4-4-4-4-------------------------------------|
A|---4-4--4-4/5-5----4-4-4-4-------------------------------------|
D|---4-4--4-4/5-5----4-4-4-4-------------------------------------|

E|---------------------------------------------------------------|
B|---------------------------------------------------------------|
G|---------------------------------------------------------------|
D|---4-4--4-4/5-5----4-4--4-4/5-5--------------------------------|
A|---4-4--4-4/5-5----4-4--4-4/5-5--------------------------------|
D|---4-4--4-4/5-5----4-4--4-4/5-5--------------------------------|

Chorus :

E|-------0---2-------------0---2-------------0---2---------------|
B|---3---2---3---------3---2---3---------3---2---3---------------|
G|---2---2---4---------2---2---4---------2---2---4---------------|
D|---0---2---4---4-5---0---2---4---4-5---0---2---4---4--5--------|
A|---0---0---2---4-5---0---0---2---4-5---0---0---2---4--5--------|
D|---0-----------4-5---0-----------4-5---0-----------4--5--------|

E|-------0---2-------------0---2-------------0---2---------------|
B|---3---2---3---------3---2---3---------3---2---3---------------|
G|---2---2---4---------2---2---4---------2---2---4---------------|
D|---0---2---4---4-5---0---2---4---4-5---0---2---4---4--5--------|
A|---0---0---2---4-5---0---0---2---4-5---0---0---2---4--5--------|
D|---0-----------4-5---0-----------4-5---0-----------4--5--------|

E|---------------------------------------------------------------|
B|---------------------3-----------------------------------------|
G|---------------------2-----------------------------------------|
D|---4-4--4-4/5-5--5-5-0-----------------------------------------|
A|---4-4--4-4/5-5--5-5-0-----------------------------------------|
D|---4-4--4-4/5-5--5-5-0-----------------------------------------|

Comments about this tab

jt16935 - 2005-03-10

Looks good to me! Keep rockin for god!!!!!


aero! - 2005-06-30

*God

It wasn't perfect...but it was pretty good. Good work.


jesusfreak35 - 2005-08-05

Hey on the verses he plays chords...I may be wrong though...
B-3--5--3--7--8--
G-4--4--2--6--7--
D-4--2--0--4--5--
A-2--2--0--4--5--
D-X--2--0--4--5--

like I said I could be wrong....but thats how I play....good job on the rest of teh tab!!!


Add a comment/correction

Complimentary Christian Ringtones
Dadamobile and CGR have teamed up to bring your favorite Christian artists right to your phone. Sign up today and get 10 complementary ringtones!
Tab Country
Did you know CGR has a sister site w/ country guitar tabs? Well we do! Its called Tab Country. It has a great archive with a lot of country tabs.
Rockin Tabs
Are you looking for a site that has rock guitar tabs? Then Rockintabs.com is the place for you. It is a budding site with many rock guitar tabs. Submit your tab today.
Tab Gallery
Tab Gallery has a compilation of christian, rock, and country tabs all in one place. Come visit us.