Guitar Tabs
song title    band name

Join Us Today!

Don't strum alone...
be a part of the largest online Christian music community. Browse thousands of guitar tabs and chat w/ musicians like yourself.


It's Free!

This tab has been rated a 2.50 out of 5 for accuracy. (4 votes)Sorry, but you must be logged in to rate this tab.
Click here to log-in, or you can click here to register.
(Registration is free)

All songs owned by corresponding publishing company. If you make copies of any song on this website, be sure to report your usage to CCLI.
Submitted by: josh-rock

Artist ~ Kutless
Song ~ Treason
Album ~ Sea of Faces

Tuning: C# (c#  g# c# f# a# d# )
* = palm mute

I wrote this with only the top three strings 
since thats all that are used anyways.
the other version on this site was a little off and wasn't tuned right.
Have Fun! JOSH

Intro ~ 
1st Guitar…….
|-0----4-x-x--------12--0-----------4-x-x--------12--0--------------
|-0----4-x-x--------12--0-----------4-x-x--------12--0-------------- repeat
|-0----4-x-x--------12--0-----------4-x-x--------12--0--------------

2nd Guitar
|-0----4----------------------------4---------------------------------
|-0----4------------12--9-----------4------------12--9-------------- repeat
|-0----4----------------------------4---------------------------------

Verses ~
|-9--------7-------4-x-x-----------------4-x-x------------------4-x-x----------
|-9--------7-------4-x-x---12---9--------4-x-x-----12---9-------4-x-x----------
|-9--------7-------4-x-x-----------------4-x-x------------------4-x-x----------

Chorus ~                         [tell    me,      tell   me  I'm wrong]
|-4------7------0--x-x--x-x-------------------------------------------- 
|-4------7------0--x-x--x-x------12-12-----9-----12-12-----9- X2 back to intro
|-4------7------0--x-x--x-x--------------------------------------------

2nd Chorus end with ~
|-4--------12p11------7-------4
|-4--------12p11------7-------4  repeat
|-4--------12p11------7-------4 
            * *       *       * 


During Rap ~
|-0---------4--------0-------4-------0--------4-------7-------9--
|-0---------4--------0-------4-------0--------4-------7-------9--
|-0---------4--------0-------4-------0--------4-------7-------9--


this is the first tab I've ever submited. I hope you find it ok...
if you have any questions or comments feel free to send them to me at 
muskie_84@hotmail.com  thanx
[ here's a link to the lyrics - http://www.kutless.com/album_sofaces.asp  
there ya go josh-rock ]

Comments about this tab

No comments/corrections found. Add your own

Complimentary Christian Ringtones
Dadamobile and CGR have teamed up to bring your favorite Christian artists right to your phone. Sign up today and get 10 complementary ringtones!
Tab Country
Did you know CGR has a sister site w/ country guitar tabs? Well we do! Its called Tab Country. It has a great archive with a lot of country tabs.
Rockin Tabs
Are you looking for a site that has rock guitar tabs? Then Rockintabs.com is the place for you. It is a budding site with many rock guitar tabs. Submit your tab today.
Tab Gallery
Tab Gallery has a compilation of christian, rock, and country tabs all in one place. Come visit us.