Guitar Tabs
song title    band name

Join Us Today!

Don't strum alone...
be a part of the largest online Christian music community. Browse thousands of guitar tabs and chat w/ musicians like yourself.


It's Free!

This tab has been rated a 3.00 out of 5 for accuracy. (3 votes)Sorry, but you must be logged in to rate this tab.
Click here to log-in, or you can click here to register.
(Registration is free)

All songs owned by corresponding publishing company. If you make copies of any song on this website, be sure to report your usage to CCLI.
Submitted by: jackbandit

Song: Not What You See
Band: Kutless
Album: Sea of Faces

 Dropped-Db Tuning 

   Intro and Verse
Eb|----------------------------------------------------
Bb|----------------------------------------------------
Gb|----------------------------------------------------
Db|2-2--0-2-2--0-----5-5-5-5-7-7-7-7-------------------
Ab|2-2--0-2-2--0-----3-3-3-3-5-5-5-5-------------------
Db|2-2--0-2-2--0---------------------------------------

Eb|----------------------------------------------------
Bb|----------------------------------------------------
Gb|----------------------------------------------------
Db|2-2--0-2-2--0-----5-5-5-5-2-2-2-2-------------------
Ab|2-2--0-2-2--0-----3-3-3-3-0-0-0-0-------------------
Db|2-2--0-2-2--0---------------------------------------
  
 Chorus
Eb|{ play three times----------------}-----------------
Bb|----------------------------------------------------
Gb|----------------------------------------------------
Db|2-2-2-2--7-7-7-7--9-9-9-9--7-7-7-7------------------
Ab|2-2-2-2--5-5-5-5--7-7-7-7--7-7-7-7------------------
Db|2-2-2-2--------------------7-7-7-7------------------

Eb|----------------------------------------------------
Bb|----------------------------------------------------
Gb|----------------------------------------------------
Db|5-5-5-5-5-5-5-5-7-7-7-7-7-7-7-7-5-5-5-5-5-5-5-5-----
Ab|5-5-5-5-5-5-5-5-7-7-7-7-7-7-7-7-5-5-5-5-5-5-5-5-----
Db|5-5-5-5-5-5-5-5-7-7-7-7-7-7-7-7-5-5-5-5-5-5-5-5-----
  Bridge
Eb|----------------------(-----3 times----)------------
Bb| listen to cd for rythym----------------------------
Gb|----------------------------------------------------
Db|2-2--0-2-2--0---------7777-4444-99999999--7777-9999-
Ab|2-2--0-2-2--0---------5555-2222-77777777--5555-7777-
Db|2-2--0-2-2--0---------------------------------------


Sorry that this tabs pretty confusing. 
This is a pretty awesome song on the new album so I hope
you like it. I didnít include the backround parts on the verses 
because theyíre kinda hard to hear. Iíll probably revise
this sometime soon. Please rate!

Comments about this tab

21Frets - 2004-12-09

This song can be played in regular tuning,
you don't have to make it a sissy tab!


PacerX - 2005-01-23

I wouldn't detune OR play it in standard tuning on a 6 6-string... a 7-string in standard tuning (low B) adds a whole new dimension of power to this song. It just thunders!

Key is Eb minor, for the lead types out there. You can noodle nicely around on the song if you'd like... who said you had to play it note-for-note anyway? I think it needs a lead, so it's getting one! :o)


rkroxmysox - 2006-01-18

Just do it in Drop D...It makes life a whole lot easier especially if you are playing other songs along with this song that aren't in drop C#!


Add a comment/correction

Complimentary Christian Ringtones
Dadamobile and CGR have teamed up to bring your favorite Christian artists right to your phone. Sign up today and get 10 complementary ringtones!
Tab Country
Did you know CGR has a sister site w/ country guitar tabs? Well we do! Its called Tab Country. It has a great archive with a lot of country tabs.
Rockin Tabs
Are you looking for a site that has rock guitar tabs? Then Rockintabs.com is the place for you. It is a budding site with many rock guitar tabs. Submit your tab today.
Tab Gallery
Tab Gallery has a compilation of christian, rock, and country tabs all in one place. Come visit us.