Guitar Tabs
song title    band name

Join Us Today!

Don't strum alone...
be a part of the largest online Christian music community. Browse thousands of guitar tabs and chat w/ musicians like yourself.


It's Free!

This tab has been rated a 2.86 out of 5 for accuracy. (7 votes)Sorry, but you must be logged in to rate this tab.
Click here to log-in, or you can click here to register.
(Registration is free)

All songs owned by corresponding publishing company. If you make copies of any song on this website, be sure to report your usage to CCLI.
Submitted by: christlover513

Capo Second fret
Intro
e----------------------------------------
b0000------0000------0000------0000------
g----221112----221112----221112----221112
d----------------------------------------
a----------------------------------------
E----------------------------------------

Verse/Intro
e00--44--22--00--00--44--22--00--
b00--44--22--00--00--44--22--00--
g11--66--44--22--11--66--44--22--
d22--66--44--22--22--66--44--22--
a22--44--22--00--22--44--22--00--
E00--------------00--------------

Verse Palm muted
e00004444222200000000444422220000
b00004444222200000000444422220000
g11116666444422221111666644442222
d22226666444422222222666644442222
a22224444222200002222444422220000
E0000------------0000------------

Chorus
e00002222444400000000222244440000
b00002222444400000000222244440000
g11114444666622221111444466662222
d22224444666622222222444466662222
a22222222444400002222222244440000
E0000------------0000------------

Bridge
e00000000000000000000000000000000
b00000000000000000000000000000000
g44444444222222224444444499999999
d44444444222222224444444499999999
a22222222000000002222222277777777
E--------------------------------

There is a spot where they do the harmonics right between the end of the bridge
and the chorus but i cant ever get the harmonics that quick soi play this instead of 
This(*)

e--12----------*9
b-12---------*9--
g9---------*9----
d----------------
a----------------
E----------------

Thanks for reading my tab. Please rate this tab. Thanks Again.

Comments about this tab

C27000 - 2006-05-26

your tabs are too close to each other. that's really confusing. oh well. keep the fire go'n.!!!!!!=)


Add a comment/correction

Complimentary Christian Ringtones
Dadamobile and CGR have teamed up to bring your favorite Christian artists right to your phone. Sign up today and get 10 complementary ringtones!
Tab Country
Did you know CGR has a sister site w/ country guitar tabs? Well we do! Its called Tab Country. It has a great archive with a lot of country tabs.
Rockin Tabs
Are you looking for a site that has rock guitar tabs? Then Rockintabs.com is the place for you. It is a budding site with many rock guitar tabs. Submit your tab today.
Tab Gallery
Tab Gallery has a compilation of christian, rock, and country tabs all in one place. Come visit us.