Guitar Tabs
song title    band name

Join Us Today!

Don't strum alone...
be a part of the largest online Christian music community. Browse thousands of guitar tabs and chat w/ musicians like yourself.


It's Free!

This tab has been rated a 4.55 out of 5 for accuracy. (22 votes)Sorry, but you must be logged in to rate this tab.
Click here to log-in, or you can click here to register.
(Registration is free)

All songs owned by corresponding publishing company. If you make copies of any song on this website, be sure to report your usage to CCLI.
Submitted by: MATEO HUGO

Echelon - Pillar

I think this is a very good tab, I took the other tabs and I added the 
solo I got, and some final parts...
The solo is played quite quickly so, checking my tab you'll see that some of 
the notes are played very very quickly , but 
you'll see that the tab is right, you just have to play it fast, 
with the rhythm.
the chorus and intro-verses are the others' work...(and they are right)
Have fun !

h = hammer on
p = pull off
/ = slide
b = bent note
bbbbb = note which is bent many times
v = vibrato 
.. = note which is played until its end or a note which is played a cuple of 
seconds

droppped D tuning

Intro + verse : 5 times


e-------------------------|--------------------------------|
b-------------------------|--------------------------------|
g-------------------------|--------------------------------|
d-9-9---9-9---9-9---9-9---|12-12---12-12---12-12---12-12---|
a----9-9---9-9---9-9---9-9|-----9-9-----9-9-----9-9-----9-9|
D-------------------------|--------------------------------|

e-------------------------|--------------------------------|
b-------------------------|--------------------------------|
g-------------------------|--------------------------------|
d-5-5---5-5---5-5---5-5---|9-9-----9-9-----9-9-----9-9-----|
a----7-7---7-7---7-7---7-7|---10-10---10-10---10-10---10-10|
D-------------------------|--------------------------------|

Chorus

e--------------------------|-------------------------------|
b--------------------------|-------------------------------|
g--------------------------|-------------------------------|
d-9--9--9-7-5-5-5--0-0-2-2-|-9--9--9-7-5-5-5--0-0-2-2------|
a-9--9--9-7-5-5-5--0-0-2-2-|-9--9--9-7-5-5-5--0-0-2-2------|
D-9--9--9-7-5-5-5--0-0-2-2-|-9--9--9-7-5-5-5--0-0-2-2------|



verse again 3 times
e-------------------------|--------------------------------|
b-------------------------|--------------------------------|
g-------------------------|--------------------------------|
d-9-9---9-9---9-9---9-9---|12-12---12-12---12-12---12-12---|
a----9-9---9-9---9-9---9-9|-----9-9-----9-9-----9-9-----9-9|
D-------------------------|--------------------------------|

e-------------------------|--------------------------------|
b-------------------------|--------------------------------|
g-------------------------|--------------------------------|
d-5-5---5-5---5-5---5-5---|9-9-----9-9-----9-9-----9-9-----|
a----7-7---7-7---7-7---7-7|---10-10---10-10---10-10---10-10|
D-------------------------|--------------------------------|

Chorus

e--------------------------|-------------------------------|
b--------------------------|-------------------------------|
g--------------------------|-------------------------------|
d-9--9--9-7-5-5-5--0-0-2-2-|-9--9--9-7-5-5-5--0-0-2-2---9..|
a-9--9--9-7-5-5-5--0-0-2-2-|-9--9--9-7-5-5-5--0-0-2-2---9..|
D-9--9--9-7-5-5-5--0-0-2-2-|-9--9--9-7-5-5-5--0-0-2-2---9..|

Solo 

e---------------------------------------
b---------------------------------------
g---------------------------------------
d---------------------------------------
a---------------------------------------
D--9-11-12--11p9h11-9/7/9v----9/6/7-4/2v

e-----------------------------------
b-----------------------------------
g-----------------------------------
d-----------------------------------
a-------12h14b-14p12-17-16-16p12h14-
D-12--16----------------------------

e-----------------------------------------------
b-----------------------------------------------
g-----------------------------------------------
d---------------------16-16/17/16p14h16p14-12-11
a------12h14--------12--------------------------
D-12h16--------12h16----------------------------

e-----------------------------------------------
b-----------------------------------------------
g-----------------------------------------------
d-7-99-/12p9h12/14-14-14p12-9-12p9v-------------
a-----------------------------------------------
D-----------------------------------------------

just after the solo, there is this part with the voice 
but there isn't any riff just these notes 

e----------------|---------------|
b----------------|---------------|
g-11---------9---|-11---------9--|
d----12-11-7---7-|----12-11-7---7|
a----------------|---------------|
D----------------|---------------|

Chorus

e--------------------------|--------------------------|
b--------------------------|--------------------------|
g--------------------------|--------------------------|
d-9--9--9-7-5-5-5--0-0-2-2-|-9--9--9-7-5-5-5--0-0-2-2-|
a-9--9--9-7-5-5-5--0-0-2-2-|-9--9--9-7-5-5-5--0-0-2-2-|
D-9--9--9-7-5-5-5--0-0-2-2-|-9--9--9-7-5-5-5--0-0-2-2-|


e-------------------------------|
b-------------------------------|
g-------------------------------|
d-9--9--9-7-5-5-5--0-0-2-2---9..|
a-9--9--9-7-5-5-5--0-0-2-2---9..|
D-9--9--9-7-5-5-5--0-0-2-2---9..|



This is the outro of the song, the intro is played but there are other notes
at the same time,
this can be played only with three guitars, or in a studio. 
This is for those who have youth group or something like this with many guitars.
For those who can go to a studio, it can easily be done with ONE guitar
I know that I shouldn't put the bass notes, but the outro would be difficult to 
play with the guitars' tab on the one hand and the bass'tab on the other, 
to make it clear and easy I put all the guitar notes and bass notes together. 



OUTRO
PART 1 played one time
                              
section A : THESE TWO PARTS ARE PLAYED AT THE SAME TIME 
e-------------------------|--------------------------------|
b-------------------------|--------------------------------|                           
g-------------------------|--------------------------------|
d---------------------12--|----------------------------12--|
a--------------------9--12|---------------------------9--12| guitar n1
D-------------------------|--------------------------------|

g-------------------------|--------------------------------| 
d-------------------------|--------------------------------| bass
a-------------------------|--------------------------------|
D----9--------------------|2--2----2--2--------------------|
here the last note of the chorus : 9 is still playing when part 1 of outro 
begins

section B : THESE TWO PARTS ARE PLAYED AT THE SAME TIME

e-------------------------|-------------------------------|
b-------------------------|-------------------------------|
g-------------------------|-------------------------------|
d---------------------12--|--------------------------17-12|
a--------------------9--12|-------------------------------| guitar
D-------------------------|-------------------------------|

g-------------------------|-------------------------------| 
d-------------------------|-------------------------------| bass
a-------------------------|-------------------------------|
D-2-2---2-2---------------|5-5---5-5----------------------|


PART 2 played two times and until the end

section A : THESE FOUR PARTS ARE PLAYED AT THE SAME TIME

e-------------------------|--------------------------------|
b-------------------------|--------------------------------|
g-------------------------|--------------------------------|
d---------------------12--|----------------------------12--|
a--------------------9--12|---------------------------9--12| guitar n1
D-------------------------|--------------------------------|

g-------------------------|--------------------------------| 
d-------------------------|--------------------------------| bass
a-------------------------|--------------------------------|
D-9-9---9-9---------------|2--2----2--2--------------------|


e-------------------------|--------------------------------|
b-------------------------|--------------------------------|
g-------------------------|--------------------------------|guitar n2
d-9-9---9-9---9-9---9-9---|12-12---12-12---12-12---12-12---|
a----9-9---9-9---9-9---9-9|-----9-9-----9-9-----9-9-----9-9|
D-------------------------|--------------------------------|

e-19----------14---12-----|--------------------------------|
b-----12-12-----------12..|--------------------------------|
g-------------------------|--------------------------------|guitar n3
e-------------------------|--------------------------------|
a-------------------------|--------------------------------|
D-------------------------|--------------------------------|









section B : THIS FOUR PARTS ARE PLAYED AT THE SAME TIME


g-------------------------|--------------------------------|
d---------------------12--|---------------------------17-12|
a--------------------9--12|--------------------------------| guitar n1
D-------------------------|--------------------------------|

g-------------------------|--------------------------------| 
d-------------------------|--------------------------------| bass
a-------------------------|--------------------------------|
D-2-2---2-2---------------|5-5---5-5-----------------------|

e-------------------------|--------------------------------|
b-------------------------|--------------------------------|
g-------------------------|--------------------------------|
d-5-5---5-5---5-5---5-5---|9-9-----9-9-----9-9-----9-9-----|guitar n2
a----7-7---7-7---7-7---7-7|---10-10---10-10---10-10---10-10|
D-------------------------|--------------------------------|

e-------------------------|--------------------------------|
b-------------------------|--------------------------------|
g-------------------------|--------------------------------|guitar n3 
d-8bbbbb..................|--------------------------------|
a-------------------------|--------------------------------|
D-------------------------|--------------------------------|

I think all the tab is right, the outro seems quite uneasy, but try to 
play it one part at the time, you'll then recognize what you're playing, 
and then you'll understand how the outro works, I hope you got the stuff 
to play it.
 

Comments about this tab

recoiL - 2005-04-01

Good Job man,
I can see you put a lot of time and effort into making this tab,
you even inculded a studio tab :D

Congratulations!
Great tab.

~Brian


RelientK&Pillar - 2005-05-02

Nice.


Add a comment/correction

Complimentary Christian Ringtones
Dadamobile and CGR have teamed up to bring your favorite Christian artists right to your phone. Sign up today and get 10 complementary ringtones!
Tab Country
Did you know CGR has a sister site w/ country guitar tabs? Well we do! Its called Tab Country. It has a great archive with a lot of country tabs.
Rockin Tabs
Are you looking for a site that has rock guitar tabs? Then Rockintabs.com is the place for you. It is a budding site with many rock guitar tabs. Submit your tab today.
Tab Gallery
Tab Gallery has a compilation of christian, rock, and country tabs all in one place. Come visit us.