Guitar Tabs
song title    band name

Join Us Today!

Don't strum alone...
be a part of the largest online Christian music community. Browse thousands of guitar tabs and chat w/ musicians like yourself.


It's Free!

This tab has been rated a 4.33 out of 5 for accuracy. (9 votes)Sorry, but you must be logged in to rate this tab.
Click here to log-in, or you can click here to register.
(Registration is free)

All songs owned by corresponding publishing company. If you make copies of any song on this website, be sure to report your usage to CCLI.
Submitted by: Adam K

Skillet-Cycle Down
CD - Collide
Drop C# Tuning C#-G#-C#-F#-A#-D#

Intro 1
F#-7-7-----9-9-----10-10-----10-10-7-7-9-9-5-    ---
C#-7-7-0-0-9-9-0-0-10-10-0-0-----------------    -0-
G#-5-5-0-0-7-7-0-0--8--8-0-0----------------- x4 -0- 
C#-----0-0-----0-0-------0-0-----------------    -0-

Intro 2
C#---0-----3---5--
G#--0-----3---5--- x2
C#-0-----3---5----

Verse
C#---0-----3---5--
G#--0-----3---5--- x8
C#-0-----3---5----

Chorus
F#--------------------------5---
C#-0---3--5--8----0---3--5--5---
G#-0---3--5--8----0---3--5--3--- x2
C#-0---3--5--8----0---3--5------

Intro 1
F#-7-7-----9-9-----10-10-----10-10-7-7-9-9-5-    
C#-7-7-0-0-9-9-0-0-10-10-0-0-----------------    
G#-5-5-0-0-7-7-0-0--8--8-0-0----------------- x2 
C#-----0-0-----0-0-------0-0-----------------    

Verse

Chorus 2
F#--------------------------5---
C#-0---3--5--8----0---3--5--5---
G#-0---3--5--8----0---3--5--3--- x4
C#-0---3--5--8----0---3--5------

Bridge
C#-8-8--8-8--8--8-8--8-8--8--0-0--0-0--0--0-0--0-0--0-
G#-8-8--8-8--8--8-8--8-8--8--0-0--0-0--0--0-0--0-0--0- x2
C#-8-8--8-8--8--8-8--8-8--8--0-0--0-0--0--0-0--0-0--0-

Chorus 2

Outro
F#-7-7-----9-9-----10-10-----10-10-7-7-9-9-5-    
C#-7-7-0-0-9-9-0-0-10-10-0-0-----------------    
G#-5-5-0-0-7-7-0-0--8--8-0-0----------------- x4  
C#-----0-0-----0-0-------0-0-----------------    

Tabbed by Adam K

 

Comments about this tab

PillarEchelon - 2004-06-10

Love this song


jesuslova - 2004-10-19

in the intro & verses
it goes

Verse
C#---0---3---3---5--
G#--0---0---3---5--- x8
C#-0---0---3---5----


Migpok35 - 2005-02-22

how do you tune the guitar like that?


7thDayBassman - 2005-03-22

really good tab, im usin it to make myself a bass tab for the song because im not very good at tabbin, but i am good at transposing. hahaha


Diedfor515 - 2005-04-10

Actually, the part goes like this:

F#-7-7-----9-9-----10-10--------------------- ---
C#-7-7-0-0-9-9-0-0-10-10-0-0----------------- -0-
G#-5-5-0-0-7-7-0-0--8--8-0-0-8-8-5-5-7-7-3--- x4 -0-
C#-----0-0-----0-0-------0-0----------------- -0-

The last part.. you had the notes right, but it needs to be down an octave (notes are E Db Eb B) Now it's a pretty great tab!


Diedfor515 - 2005-04-10

Oh.. and I believe the verses go like so:

Verse
C#---0---3----3---5--
G#--0---0-0--3---5-5- x8
C#-0---0----3---5----


akaukal - 2006-03-29

for all u people who dont know what drop C# is, it's the same thing as drop Db (Db,Ab,Db,Gb,Bb,E,)


Dani_Boy - 2006-04-23

The main riff uses mainly octaves! Everything in the riff except the C#5 chords with loose strings are octaves.


Zions_Child16 - 2006-05-26

totally awesome!!!! gotta love Skillet.. my fav song, too..
thanks!!


Mic vs. Guitar - 2006-06-27

Holy crap, I can't wait for their new album to come out...Lori's using double kicks and stuff...i can't wait for Creation! I too Excited


Add a comment/correction

Complimentary Christian Ringtones
Dadamobile and CGR have teamed up to bring your favorite Christian artists right to your phone. Sign up today and get 10 complementary ringtones!
Tab Country
Did you know CGR has a sister site w/ country guitar tabs? Well we do! Its called Tab Country. It has a great archive with a lot of country tabs.
Rockin Tabs
Are you looking for a site that has rock guitar tabs? Then Rockintabs.com is the place for you. It is a budding site with many rock guitar tabs. Submit your tab today.
Tab Gallery
Tab Gallery has a compilation of christian, rock, and country tabs all in one place. Come visit us.