Guitar Tabs
song title    band name

Join Us Today!

Don't strum alone...
be a part of the largest online Christian music community. Browse thousands of guitar tabs and chat w/ musicians like yourself.


It's Free!

This tab has not yet been rated for accuracy.Sorry, but you must be logged in to rate this tab.
Click here to log-in, or you can click here to register.
(Registration is free)

All songs owned by corresponding publishing company. If you make copies of any song on this website, be sure to report your usage to CCLI.
Submitted by: scheller

Fahrenheit
Five Iron Frenzy
Album: All the Hype that Money Can Buy
2000 5 Minute Walk Records

Transcribed by scheller    sonnyschell@hotmail.com
My original version of this tab lacked some parts and was not
completely accurate.  This one is much better and has all the parts.

The little "o"s next to the bars mean to repeat the measures in between.

Intro
  C#m   A5F#m   D5        G5
  PM--|   PM--|   PM|   PM--|
|-------------------------------|
|-------------------------------|
|---------2-2-2-----------------|
|-2-2-2---4-4-4-0-7-7-7---5-5-5-|
|-4-4-4-0---------5-5-5-0-5-5-5-|
|-------------------------3-3-3-|

  G#          A            B           G#
|-------------------------------------------------------|
|-------------------------------------------------------|
|-13-13-13-13--14-14-14-14-16-16-16-16--13-13-13-(13)\--|
|-------------------------------------------------------|
|-11-11-11-11--12-12-12-12-14-14-14-14--11-11-11-(11)\--|
|-------------------------------------------------------|
|
|-------------------------------------------------------|
|-------------------------------------------------------|
|--7--7--7----/13-13-13-----7--7--7----/13-13-13-(13)\--|
|-------------------------------------------------------|
|--5--5--5----/11-11-11-----5--5--5----/11-11-11-(11)\--|
|-------------------------------------------------------|


  F#5     B5      A5      G5        G#          E       G#      B    A    G#
|---------------------------------|------------------------------------------|
|---------------------------------|------------------------------------------|
|---------------------------------|-13-13-13-13-9-9-9---13-13---16---14---13-|
|---------------------------------|------------------------------------------|
|-4-4-4-4-9-9-9-9-7-7-7-7-5-5-5-5-|-11-11-11-11-7-7-7---11-11---14---12---11-|
|-2-2-2-2-7-7-7-7-5-5-5-5-3-3-3-3-|------------------------------------------|
|
|---------------------------------|------------------------------------------|
|---------------------------------|------------------------------------------|
|---------------------------------|--7--7--7--7-9-9-9-9--7--7-7--7-9--7-9--9-|
|-4-4-4-4-9-9-9-9-7-7-7-7-5-5-5-5-|------------------------------------------|
|-4-4-4-4-----------------5-5-5-5-|--5--5--5--5-7-7-7-7--5--5-5--5-7--5-7--7-|
|-2-2-2-2-7-7-7-7-5-5-5-5-3-3-3-3-|------------------------------------------|


 Verse
    A5                                G#5                     E/Ab
||----------------------------------|----------------------------------||
||o---------------------------------|---------------------------------o||
||----------------------------------|----------------------------------||
||--2-2-x-x-x-x-x-x-x-x-x-----------|----------------------------------||
||o-0-0-x-x-x-x-x-x-x-x-x-2-4-5-4-2-|-6-6-x-x-x-x-x-x-x-x-x-6-7---4-2-o||
||----------------------------------|-4-4-x-x-x-x-x-x-x-x-x-4-4-5------||


 Pre-Chorus
  F#5         E5  C5  G#5   B5       E5
|-------------------------|------------------------||
|-------------------------|------------------------||
|-------------------------|------------------------||
|-4-4-4-4-4-x-9-9-5-5-----|-4-4-4-4--9-9-9-9-9-9-9-||
|-4-4-4-4-4-x-7-7-3-3-6-6-|-2-2-2-2--7-7-7-7-7-7-7-||
|-2-2-2-2-2-x---------4-4-|------------------------||


 Chorus Riff A
  A5                          F#5
|---------------------------|-----------------------------|
|---------------------------|-----------------------------|
|---------------------------|-----------------------------|
|---------------------------|-----------------------------|
|-7-7-7-7-7-7-7-7-7-7-7-7-7-|-4---4-4-4-4-4-4-4-4-4-4-4-4-|
|-5-5-5-5-5-5-5-5-5-5-5-5-5-|-2---2-2-2-2-2-2-2-2-2-2-2-2-|
|
| Gtr II
|---------------------------|-----------------------------|
|---------------------------|-----------------------------|
|---------------------------|-----------------------------|
|-7-7---7-9---7---7-7-7-7-6-|-4-4-4-4-4-4-4-4-4-4-4-4-4-4-|
|---------------------------|-----------------------------|
|-5-5---5-7---5---5-5-5-5-4-|-2-2-2-2-2-2-2-2-2-2-2-2-2-2-|


                                                           end Riff A
  F#                                           E
|--------------------------------------------|----------------------||
|--------------------------------------------|----------------------||
|-/11-11-11-11-11-11-11-11-11-11-11-11-11-11-|-9-9-9-9-9-9-9-9-9----||
|--------------------------------------------|----------------------||
|--/9--9--9--9--9--9--9--9--9--9--9--9--9--9-|-7-7-7-7-7-7-7-7-7----||
|--------------------------------------------|----------------------||
|
|--------------------------------------------|----------------------||
|--------------------------------------------|----------------------||
|---7--7--7--7--7--7--7--7--7--7--7--7--7--7-|-4-4-4-4-4-4-4-4-4----||
|--------------------------------------------|----------------------||
|---5--5--5--5--5--5--5--5--5--5--5--5--5--5-|-2-2-2-2-2-2-2-2-2----||
|--------------------------------------------|----------------------||


Play INTRO, VERSE, PRE-CHORUS and then:


 Chorus 2 (Riff B)
    &
    A5                          F#5
||----------------------------|-----------------------------|
||o---------------------------|-----------------------------|
||----------------------------|-----------------------------|
||----------------------------|-----------------------------|
||o-7-7-7-7-7-7-7-7-7-7-7-7-7-|-4---4-4-4-4-4-4-4-4-4-4-4-4-|
||--5-5-5-5-5-5-5-5-5-5-5-5-5-|-2---2-2-2-2-2-2-2-2-2-2-2-2-|
|
||----------------------------|-----------------------------|
||o---------------------------|-----------------------------|
||----------------------------|-----------------------------|
||--7-7---7-9---7---7-7-7-7-6-|-4-4-4-4-4-4-4-4-4-4-4-4-4-4-|
||o---------------------------|-----------------------------|
||--5-5---5-7---5---5-5-5-5-4-|-2-2-2-2-2-2-2-2-2-2-2-2-2-2-|

                                                             end RIFF B
  F#                                           E                  D5C#5
|--------------------------------------------|------------------------|
|--------------------------------------------|------------------------|
|-/11-11-11-11-11-11-11-11-11-11-11-11-11-11-|-9-9-9-9-9-9-9-9-9------|
|--------------------------------------------|--------------------7-6-|
|--/9--9--9--9--9--9--9--9--9--9--9--9--9--9-|-7-7-7-7-7-7-7-7-7--5-4-|
|--------------------------------------------|------------------------|
|
|--------------------------------------------|------------------------|
|--------------------------------------------|------------------------|
|---7--7--7--7--7--7--7--7--7--7--7--7--7--7-|-4-4-4-4-4-4-4-4-4------|
|--------------------------------------------|--------------------7-6-|
|---5--5--5--5--5--5--5--5--5--5--5--5--5--5-|-2-2-2-2-2-2-2-2-2--5-4-|
|--------------------------------------------|------------------------|


For the 2nd half of Chorus 2, PLAY CHORUS RIFF A


 Bridge
    F#m
||---9--9-x--9-x--9-x--9-x--9-x--9-x--9-x--9-|
||o-10-10-x-10-x-10-x-10-x-10-x-10-x-10-x-10-|
||--11-11-x-11-x-11-x-11-x-11-x-11-x-11-x-11-|
||--11-11-x-11-x-11-x-11-x-11-x-11-x-11-x-11-|
||o------------------------------------------|
||-------------------------------------------|

   A
|------------------------------------------|
|-14-14-x-14-x-14-x-14-x-14-x-14-x-14-x-14-|
|-14-14-x-14-x-14-x-14-x-14-x-14-x-14-x-14-|
|-14-14-x-14-x-14-x-14-x-14-x-14-x-14-x-14-|
|------------------------------------------|
|------------------------------------------|

  Bm                                                C#
|-7-7-x-7-x-7-x-7-x-7-x-7-x-7-x-7-|-7-7-x-7-x-7-x-7--------------------9---||
|-7-7-x-7-x-7-x-7-x-7-x-7-x-7-x-7-|-7-7-x-7-x-7-x-7--9--9-x--9-x--9-x--9--o||
|-7-7-x-7-x-7-x-7-x-7-x-7-x-7-x-7-|-7-7-x-7-x-7-x-7-10-10-x-10-x-10-x-10---||
|-9-9-x-9-x-9-x-9-x-9-x-9-x-9-x-9-|-9-9-x-9-x-9-x-9-11-11-x-11-x-11-x-11---||
|---------------------------------|-----------------11-11-x-11-x-11-x-11--o||
|---------------------------------|----------------------------------------||

   D                                          A
|-------------------------------------------|-5-5-x-5-x-5-x-5-x-5-x-5-x-5-x-5-|
|o-10-10-x-10-x-10-x-10-x-10-x-10-x-10-x-10-|-5-5-x-5-x-5-x-5-x-5-x-5-x-5-x-5-|
|--11-11-x-11-x-11-x-11-x-11-x-11-x-11-x-11-|-6-6-x-6-x-6-x-6-x-6-x-6-x-6-x-6-|
|--12-12-x-12-x-12-x-12-x-12-x-12-x-12-x-12-|-7-7-x-7-x-7-x-7-x-7-x-7-x-7-x-7-|
|o-12-12-x-12-x-12-x-12-x-12-x-12-x-12-x-12-|---------------------------------|
|-------------------------------------------|---------------------------------|

 1st ending
  Bm                                F#m
|-7-7-x-7-x-7-x-7-x-7-x-7-x-7-x-7-|--9--9-x--9-x--9-x--9-x--9-x--9-x--9-x--9--|
|-7-7-x-7-x-7-x-7-x-7-x-7-x-7-x-7-|-10-10-x-10-x-10-x-10-x-10-x-10-x-10-x-10-o|
|-7-7-x-7-x-7-x-7-x-7-x-7-x-7-x-7-|-11-11-x-11-x-11-x-11-x-11-x-11-x-11-x-11--|
|-9-9-x-9-x-9-x-9-x-9-x-9-x-9-x-9-|-11-11-x-11-x-11-x-11-x-11-x-11-x-11-x-11--|
|---------------------------------|------------------------------------------o|
|---------------------------------|-------------------------------------------|


  2nd ending
  Bm                                G5
|-7-7-x-7-x-7-x-7-x-7-x-7-x-7-x-7-|------------------------------||
|-7-7-x-7-x-7-x-7-x-7-x-7-x-7-x-7-|------------------------------||
|-7-7-x-7-x-7-x-7-x-7-x-7-x-7-x-7-|------------------------------||
|-9-9-x-9-x-9-x-9-x-9-x-9-x-9-x-9-|-5-5--x-5-5--x-5--x-5--x-5-5--||
|---------------------------------|-5-5--x-5-5--x-5--x-5--x-5-5--||
|---------------------------------|-3-3--x-3-3--x-3--x-3--x-3-3--||


Play INTRO and then:

Out-Chorus (Play Chorus Riff B 4x)
End on A5


Generated using PowerTab Editor

Comments about this tab

No comments/corrections found. Add your own

Complimentary Christian Ringtones
Dadamobile and CGR have teamed up to bring your favorite Christian artists right to your phone. Sign up today and get 10 complementary ringtones!
Tab Country
Did you know CGR has a sister site w/ country guitar tabs? Well we do! Its called Tab Country. It has a great archive with a lot of country tabs.
Rockin Tabs
Are you looking for a site that has rock guitar tabs? Then Rockintabs.com is the place for you. It is a budding site with many rock guitar tabs. Submit your tab today.
Tab Gallery
Tab Gallery has a compilation of christian, rock, and country tabs all in one place. Come visit us.