Guitar Tabs
song title    band name

Join Us Today!

Don't strum alone...
be a part of the largest online Christian music community. Browse thousands of guitar tabs and chat w/ musicians like yourself.


It's Free!

This tab has been rated a 5.00 out of 5 for accuracy. (3 votes)Sorry, but you must be logged in to rate this tab.
Click here to log-in, or you can click here to register.
(Registration is free)

All songs owned by corresponding publishing company. If you make copies of any song on this website, be sure to report your usage to CCLI.
Submitted by: nmarvinw

Mae
Destination:Beautiful
Sun
nmarvinw@hotmail.com
Key:A

On the first tab I'll put a line for the timing (1,2,3,4) above it. It will
be sort of long and drawn out, but the rest will be at double the rate.


Verse
"I'm a mess..."
Guitar 2 (strum up and down):
e--------------
B|-9--9---9--9--
G|-9--9---9--9--
D|-7--11--9--11-
A|-9--12--9--11-
E|--------------

^This may be completely wrong but the G and B strings should be right.


Each time on the C#m, Guitar 1 plays:
   1 - - - 2 - - - 3 - - - 4 - - - 1 - - -    1 - 2 - 3 - 4 – 1 -
e|------------------------------------      |--------------------
B|---------------------------------14-      |-----------------14-
G|------------------------------------ -or- |--------------------
D|-----14------16------14--16--14-----      |---14—-16—141614----
A|------------------------------------      |--------------------
E|------------------------------------      |--------------------
                         Play twice^
One time the B string plays 17 instead of a 14.


Chorus
“Waiting for the...”
Guitar 1 (slide between each strum):
e|---------------------
B|---------------------
G|-9-9/11/6/9/4-4—-4-4-
D|---------------------
A|-7-7/9-/4/7/2-2—-2-2-
E|---------------------

“Seems like yesterday...”
F#m – D Back and forth, then A, then D
e|                                   5
B|                                   7
G|    7                      6       7
D|4   7                      7       7
A|4   5                      7       5
E|2   5                      5 x4    5 x4 x4 x2


Bridge
e|---------------------------
B|---------------------------
G|---------------------------
D|---4-7-6-------------------
A|-5-------7---7/9-7-/5—4-^4-
E|-----------5---------------

At the breakdown before the piano part he moves around some octaves like:
G|-6-9-9-7-6-6-6-4-9-7-6-
D|    	               I have no idea how he moves these around.
A|-4-7-7-5-4-4-4-2-7-5-4-

I love this song. I think the whole "waiting for the rain to stop,
destination:beautiful" part is talking about heaven, but I'm not sure. Dave
has some really thought-provoking lyrics on this album.

Comments about this tab

ml58227 - 2005-03-28

There is an acoustic version of this song on the Destination : B-sides album. Would anyone happen to have that??


heisouronlyhope - 2006-08-02

I have that album it is worth buying it.


shatteredshadow - 2006-09-23

thanx for tabbing this song! i wanted to learn to play it! :) And this album is worth buying and giving to all your friends too. :) lol...


Fattorini - 2006-09-26

Bridge
e|--------------------------- -5-
B|--------------------------- -7-
G|--------------------------- -7-
D|---4-7-6------------------- -7-
A|-5-------7---7/9-7-/5—4-^4- -5-
E|-----------5--------------- x4 then -5-


Fattorini - 2006-09-26

The chord right before the bridge is a grandoise C.

-0
-1
-0
-2
-3
--


jopo819 - 2007-02-10

awesome tab! DOES ANYBODY HAVE A TAB OR CHORDS TO the sun and the moon ???
if so that would be awessommeee


Add a comment/correction

Complimentary Christian Ringtones
Dadamobile and CGR have teamed up to bring your favorite Christian artists right to your phone. Sign up today and get 10 complementary ringtones!
Tab Country
Did you know CGR has a sister site w/ country guitar tabs? Well we do! Its called Tab Country. It has a great archive with a lot of country tabs.
Rockin Tabs
Are you looking for a site that has rock guitar tabs? Then Rockintabs.com is the place for you. It is a budding site with many rock guitar tabs. Submit your tab today.
Tab Gallery
Tab Gallery has a compilation of christian, rock, and country tabs all in one place. Come visit us.