Guitar Tabs
song title    band name

Join Us Today!

Don't strum alone...
be a part of the largest online Christian music community. Browse thousands of guitar tabs and chat w/ musicians like yourself.


It's Free!

This tab has been rated a 5.00 out of 5 for accuracy. (3 votes)Sorry, but you must be logged in to rate this tab.
Click here to log-in, or you can click here to register.
(Registration is free)

All songs owned by corresponding publishing company. If you make copies of any song on this website, be sure to report your usage to CCLI.
Submitted by: Adam K

Skillet-Under My Skin
Standard Tuning E-A-D-G-B-E

Intro
E----------------------------------------------------------
B---------2-------------2--------------2-------------2-----
G---1-3-1---1-1---1-3-1---1-1----1-3-1---1-1---1-3-1---1-1-
D----------------------------------------------------------
A---------------------------------------------------------- x2
E-2-------------4--------------6-------------2-------------

Verse
E----------------------------------------------------------
B---------2-------------2--------------2-------------2-----
G---1-3-1---1-1---1-3-1---1-1----1-3-1---1-1---1-3-1---1-1-
D----------------------------------------------------------
A---------------------------------------------------------- x4
E-2-------------4--------------6-------------2-------------

Chorus
G---------------8-------
D-4--6--8----4--8--8----
A-4--6--8----4--6--8---- x3
E-2--4--6----2--6--6----

Verse

Chorus 2
G---------------8-------
D-4--6--8----4--8--8----
A-4--6--8----4--6--8---- x4
E-2--4--6----2--6--6----

Bridge 
(Piano)

Chorus 3
G---------------8-------
D-4--6--8----4--8--8----
A-4--6--8----4--6--8---- x4
E-2--4--6----2--6--6----

Tabbed by Adam K





Comments about this tab

hyo_j - 2004-09-15

intro
E----------------------------------------------------------
B----------------------------------------------------------
G-------5-6p5-5-------5-6p5-5--------5-6p5-5------5-6p5-5--
D------6-6---6-------6-6---6--------6-6---6------6-6---6---
A---------------------------------------------------------- x2
E-2-------------4------------4/6-------------2-------------

seems to be right for me


1chance - 2004-09-28

Could someone please tab A Little More by Skillet? I really want that song.


lalo_worshiper - 2004-10-17

I AGREE WITH 1CHANCE


tennisguy224 - 2005-02-10

This is an easier, and more correct way to play the intro...

Intro
E------------------------------
B---1-2p1-1--1-2p1-1--1-2p1-1--
G--1-1---1--1-1---1--1-1---1--- (x2)
D------------------------------
A-------------------1----------
E-2--------4-------------------


panhead777 - 2006-10-16

tennis's is better


Dani_Boy - 2007-01-06

Try this for the acoustic guitar "riff" throughout the verse:

Capo on 2nd fret.

F#|-------------------------------------|
C#|------0-------0--------0-------0-----|
A |----3--3----3--3-3---3--3----3--3-3--|
E |---4-4--4--4-4--4---4-4--4--4-4--4---|
B |-------------------------------------|
F#|--0------2--------h4------0----------|


Use your middle finger for the A string and your pinky finger for the E string. These two fingers stay locked in that position. For the F# string; use your pointer finger for the 2nd fret and your ring finger for the 4th fret.

With these finger settings, all you need is some speed to your picking to play this riff real smooth and easy. Please tell me what you think of this version.

God Bless,
Daniel


d_friday - 2008-02-08

Dani_Boy, that version is great!! yeah it takes some time to learn but it is almost perfect when played along with the song.


d_friday - 2008-02-08

btw... does anyone know what chords to play for the pre-chorus strumming part?


Add a comment/correction

Complimentary Christian Ringtones
Dadamobile and CGR have teamed up to bring your favorite Christian artists right to your phone. Sign up today and get 10 complementary ringtones!
Tab Country
Did you know CGR has a sister site w/ country guitar tabs? Well we do! Its called Tab Country. It has a great archive with a lot of country tabs.
Rockin Tabs
Are you looking for a site that has rock guitar tabs? Then Rockintabs.com is the place for you. It is a budding site with many rock guitar tabs. Submit your tab today.
Tab Gallery
Tab Gallery has a compilation of christian, rock, and country tabs all in one place. Come visit us.