Guitar Tabs
song title    band name

Join Us Today!

Don't strum alone...
be a part of the largest online Christian music community. Browse thousands of guitar tabs and chat w/ musicians like yourself.


It's Free!

This tab has been rated a 4.40 out of 5 for accuracy. (5 votes)Sorry, but you must be logged in to rate this tab.
Click here to log-in, or you can click here to register.
(Registration is free)

All songs owned by corresponding publishing company. If you make copies of any song on this website, be sure to report your usage to CCLI.
Submitted by: anydaynow

The other version of the song isn't the guitar for the version of the song on
the most recent United album "to the ends of the earth:united Live"... this is
it without a doubt!

Intro: Em,Cadd9, G,D (x2)

Verses:

 Em, Cadd9, G, D (x2)
 Em,Cadd9, G, D, Cadd9

Prechorus:
D,Em, Cadd9, G
D, Cadd9, Em, Cadd9

Chorus:
G, D, Am7, C
G, F, Am7, C

Comments about this tab

isaiah_43 - 2004-05-22

i tryed your tab out and you mention in the chorus Am7, when it actually is Am. I just wanted to point that out, other wise great tab dude.


CryingNut - 2004-06-27

if anyone knows the correct solo in the middle of this song
please post it here or mail it to drunken_imperial@hotmail.com
thank you


Mexi_strat - 2004-07-10

The correct middle solo part of this song.
Cant say its perfect, but dare say very close to it.
Enjoy everyone!

SOLO
E------------------------------12-15----12----12--|
B------7-8-----------8-8s12-10-------15----12-----|
G--7s9-----7-----7-9------------------------------|
D------------7-9----------------------------------|
A-------------------------------------------------|
E-------------------------------------------------|


E----------------------------------10-10--|
B--10-12-10-8-10-----------8-10-12--------|
G-------------------7s9-11----------------|
D----------------12-----------------------|
A-----------------------------------------|
E-----------------------------------------|


Mexi_strat - 2004-07-10

The correct middle solo part of this song.
Cant say its perfect, but dare say very close to it.
Enjoy everyone!

SOLO
E------------------------------12-15----12----12--|
B------7-8-----------8-8s12-10-------15----12-----|
G--7s9-----7-----7-9------------------------------|
D------------7-9----------------------------------|
A-------------------------------------------------|
E-------------------------------------------------|


E----------------------------------10-10--|
B--10-12-10-8-10-----------8-10-12--------|
G-------------------7s9-11----------------|
D----------------12-----------------------|
A-----------------------------------------|
E-----------------------------------------|


matt_pom - 2004-07-26

hey man, u r right about the Am7, just change the Cadd9 to a C2


GodChick88 - 2004-08-31

the guitar solo's great! thanks for adding it!!


Sandz110 - 2004-09-15

Intro:

E
B 8 7 5 3 5 7 8
G repeat as necisary
D
A
E


SOLO
E--------------------7tr8--5---12h15-12h14--------|
B------7-8----------------------------------------|
G--7s9-----7--------------------------------------|
D------------7---7-9------------------------------|
A-------------7-9---------------------------------|
E-------------------------------------------------|


E-10h12----------------------------------------|
B-------10h12--12-10------------------12-15-15-|
G-------------------12s14--------12-14---------|
D------------------------12-12-14--------------|
A----------------------------------------------|
E----------------------------------------------|

Thats the correct solo that I play live...


ge_ar - 2004-09-27

hey there. i just wanna ask wat does C2 and Cadd9 look like?


ge_ar - 2004-09-27

i hav just found the Cadd9. it was just ryt hir all along! but there is no C2 chords der.


matt_pom - 2004-10-09

hay, hillsong plays the chords like this...

Em7 - 022033
C2 - x32033
G - 320033
D - xx0232
Am7 - x02013
F2 - 133200


xEclipse - 2004-10-12

hm.. i play the solo like this:

E--------------------------------------------12s15--12s14--10s12--
B------7--8----------------8--s12--12-12-10-----------------------
G-7s9-------7--------7--9-----------------------------------------
D--------------7--9-----------------------------------------------
A-----------------------------------------------------------------
E-----------------------------------------------------------------

E-------------------------------------------10-10-----------------
B-s12--12--10--8--10------------8--10--12-------------------------
G--------------------7---9--11------------------------------------
D-----------------------------------------------------------------
A-----------------------------------------------------------------
E-----------------------------------------------------------------


AcousticServant - 2005-03-20

xeclipse is right for th solo except that it's 12-10-10 on the B string instead of 12-12-12-10


AcousticServant - 2005-03-24

also, i believe that the beginning of the solo starts as 9-11-12-7 on the G string


AcousticServant - 2005-03-24

9-9-11-12-7 i mean


Add a comment/correction

Complimentary Christian Ringtones
Dadamobile and CGR have teamed up to bring your favorite Christian artists right to your phone. Sign up today and get 10 complementary ringtones!
Tab Country
Did you know CGR has a sister site w/ country guitar tabs? Well we do! Its called Tab Country. It has a great archive with a lot of country tabs.
Rockin Tabs
Are you looking for a site that has rock guitar tabs? Then Rockintabs.com is the place for you. It is a budding site with many rock guitar tabs. Submit your tab today.
Tab Gallery
Tab Gallery has a compilation of christian, rock, and country tabs all in one place. Come visit us.