Guitar Tabs
song title    band name

Join Us Today!

Don't strum alone...
be a part of the largest online Christian music community. Browse thousands of guitar tabs and chat w/ musicians like yourself.


It's Free!

This tab has been rated a 3.50 out of 5 for accuracy. (6 votes)Sorry, but you must be logged in to rate this tab.
Click here to log-in, or you can click here to register.
(Registration is free)

All songs owned by corresponding publishing company. If you make copies of any song on this website, be sure to report your usage to CCLI.
Submitted by: Sevan13

Dare You To Move - Switchfoot
Tabbed By : Evans Lewis

Strumming not correct, just wrote out chords.
/ = slide

Intro

e|--7--0--4--0--0---
B|--5--0--5--0--0---
G|--4--4--4--4--2---  You can even keep your ring finger pressed on the 5th
D|--------------2---  fret B string for simplicity. No big difference in 
A|-------------(0)--  sound.
E|------------------

Verse - Continue with the intro riff over and over. There are two changes.

               e|--0--0--
               B|--0--5--
               G|--6--4--   Then continue with intro riff
               D|--6-----
               A|--4-----
               E|--------


               e|--0--0--
               B|--0--0--
               G|--7--8--  Leads into chorus   
               D|--7--9--
               A|--5--6--
               E|--------

Chorus
         Hold-->
e|--0--0--0--------0--0--0--0--
B|--0--0--0--------0--0--0--5-- Rushes right back into Intro Riff
G|--1--4--2--------1--4--2--4--
D|--2--4--2--------2--4--2-----
A|--2--2--0--------2--2--0-----
E|--0--------------0-----------

Verse 2 - Play Intro Riff twice

e|--0 / 0----0 / 0----0--0----0--
B|--0 / 0----0 / 0----0--0----5-- Last chord is played in background.  Might 
G|--4 / 6----4 / 6----6--4----4-- be easier just to play A2. Anyways, play 
D|--4 / 6----4 / 6----6--4------- this riff twice.
A|--2 / 4----2 / 4----4--2-------
E|-------------------------------

e|--------------------------- There is a part where the base line takes over
B|--------------------------- And no guitar is played.  If you're playing w/o
G|--------------------------- a band, then just play the riff over again.
D|--4--2--4--2------4--6--7--
A|--4--2--4--2------4--6--7-- Leads right into chorus.
E|--2--2--2--2------2--4--5--

Bridge

e|-----------------------  
B|-----------------------
G|--9--------------------  Leads into solo
D|--9--7--repeat------4--
A|--7--7--------------4--
E|-----5--------------2--

Solo

e|----------------------------------------------------------------------------
B|--------7h9----------------------------------------12-12-12-12-12-12-12-12--
G|--9-9----9---9-9-9-9-9-9-9/14-14-14-14-14-14-14-14--------------------------
D|----------------------------------------------------------------------------
A|----------------------------------------------------------------------------
E|----------------------------------------------------------------------------

e|------------------------------
B|--12/14-14-14-14-14-14-14-14-- Back into chorus now.
G|------------------------------
D|------------------------------
A|------------------------------
E|------------------------------

Ending (during final chorus)


After playing the chorus twice, ends like this.  C#m   A2   Bsus4
These chords are in the tab. Just find the root notes of the chords up there
if you don't already know these chords.  Those are the names for them.

Peace.

Comments about this tab

zack1389 - 2004-06-03

i think that there is a background guitar to that that just is constant through the intro and first verse.
woul dyou happen to know what it is


Retrnfrmfallen - 2005-01-16

hey i think the solo goes like this...

e--0/00000000000000000000000000------------------------------------
b--4/55555555500000000555555555/16161616161616---------------------
g-------------22222222---------------------------------------------
d-------------22222222---------------------------------------------
a------------(00000000)--------------------------------------------
E------------------------------------------------------------------

he uses some weird effects, i dunno what they are ill post when i get something with my friends board that sounds like it


simmonds - 2006-01-08

HOW DO U PLAY D#?!?


guitarmaster2 - 2006-03-16

hey simmonds go to ChordFind.com and then hit guitar and click on the chord.


guitarmaster2 - 2006-03-16

guys the intro goes...

----0------0------0------0------0------
----12-----0------9------0------0------
----9------9------9------9------9------ x2
----11-----9------9------9------7------
----0------0---------------------------
-------------------------------------

that not the strumming listen to the song for that
i think this sounds better personally.
cya...


Add a comment/correction

Complimentary Christian Ringtones
Dadamobile and CGR have teamed up to bring your favorite Christian artists right to your phone. Sign up today and get 10 complementary ringtones!
Tab Country
Did you know CGR has a sister site w/ country guitar tabs? Well we do! Its called Tab Country. It has a great archive with a lot of country tabs.
Rockin Tabs
Are you looking for a site that has rock guitar tabs? Then Rockintabs.com is the place for you. It is a budding site with many rock guitar tabs. Submit your tab today.
Tab Gallery
Tab Gallery has a compilation of christian, rock, and country tabs all in one place. Come visit us.