Guitar Tabs
song title    band name

Join Us Today!

Don't strum alone...
be a part of the largest online Christian music community. Browse thousands of guitar tabs and chat w/ musicians like yourself.


It's Free!

This tab has been rated a 3.67 out of 5 for accuracy. (3 votes)Sorry, but you must be logged in to rate this tab.
Click here to log-in, or you can click here to register.
(Registration is free)

All songs owned by corresponding publishing company. If you make copies of any song on this website, be sure to report your usage to CCLI.
Submitted by: NXT2HIM'02

 In this song there aren't any chords being played on the CD so you can
use the chords as a 2nd Guitar Part  
(CAPO 1st Fret)
VERSES:
   G/B  Asus2  G          
CHORUS:
G2  Asus2   Dadd9

The Acoustic part played throughout the song is below just remember the
CAPO on the 1st fret.

e-----3p2h3p2--------------------------
B-------------2-----3/5-------2h3-3/5--
G-----------------2--------------------
D----0----------------------0----------
A--2------------0----------------------
E-----------------------3--------------

e------3p2h3p2------------------------------------
B--------------2------3/5--------2h3--5-2h3p2-0---
G-------------------2---------------------------2-
D----0------------------------0-------------------
A--2--------------0-------------------------------
E--------------------------3----------------------

This song is an awesome inspiration to me and if you like the way David
Crowder does it then you should check the original by Deliriou5?

Comments about this tab

NXT2HIM'02 - 2004-03-09

Song submitted by: jdc10_27@juno.com


joellaw44 - 2004-05-18

Crowder uses and Eb tuning (Eb,Ab,Eb,Eb,Bb,Eb) and plays the picking part like this:
Eb 4h5p4p0
Bb 0

The chords in this tuning are on the bands site. If you don't want to have to retune all the time though, this tab is fine.


Add a comment/correction

Complimentary Christian Ringtones
Dadamobile and CGR have teamed up to bring your favorite Christian artists right to your phone. Sign up today and get 10 complementary ringtones!
Tab Country
Did you know CGR has a sister site w/ country guitar tabs? Well we do! Its called Tab Country. It has a great archive with a lot of country tabs.
Rockin Tabs
Are you looking for a site that has rock guitar tabs? Then Rockintabs.com is the place for you. It is a budding site with many rock guitar tabs. Submit your tab today.
Tab Gallery
Tab Gallery has a compilation of christian, rock, and country tabs all in one place. Come visit us.