Guitar Tabs
song title    band name

Join Us Today!

Don't strum alone...
be a part of the largest online Christian music community. Browse thousands of guitar tabs and chat w/ musicians like yourself.


It's Free!

This tab has been rated a 4.71 out of 5 for accuracy. (7 votes)Sorry, but you must be logged in to rate this tab.
Click here to log-in, or you can click here to register.
(Registration is free)

All songs owned by corresponding publishing company. If you make copies of any song on this website, be sure to report your usage to CCLI.
Submitted by: conway269

Pillar
Fireproof
Album: Fireproof (MCA remix)

this should deal with the problem with the solo and the chorus.

x+pm=palm mute

intro  (with delay effect)
D----
A-5-----5----5----5----5----5----5----5-----8
D—0-----2----3----5----0----2----3----5---5-5

verse x2
D
A---------5------------5------------5-----------5
D—0-0---0--0----2-2—--2—-2----3-3--3-3----5-5—-5-5
  x x           x x          x x          x x

D
A---------5------------5------------5-----------5--------5
D—0-0---0--0----2-2—--2—-2----3-3--3-3----5-5—-5-5—--8-8--8
  x x           x x           x x         x x        x x
 
pre-chorus
D--
A--5------5--5---5------5--5---5-------5--5---5------5--5
D—-0—0-0--0--0—--2—0-0--2--2-—-3--3-3--3--3—--5--5-5-5--5
     x x           x x            x x            x x

D--
A--5------5--5---5------5--5---5--5--5555555555
D—-0—0-0--0--0—--2—0-0--2--2-—-3--3--3333335555----17(scrape)
     x x          x x             

chorus
D-------------------------------------10101010-xx10-8888xx88
A-------------------------------------10101010-xx10-5555xx55
D-0---0-13-0-13-0----0-13-0-13-0---0---8 8 8 8-xx 8-5555xx55

D-------------------------------------10101010-xx1010-88xx10101010
A-------------------------------------10101010-xx1010-55xx10101010
D-0---0-13-0-13-0----0-13-0-13-0---0---8 8 8 8-xx 8 8-55xx10101010

D-------------------------------------10101010-xx10-8888xx8
A-------------------------------------10101010-xx10-5555xx5
D-0---0-13-0-13-0----0-13-0-13-0---0---8 8 8 8-xx 8-5555xx5

D
A----------------------------------------------10-10------------8-8
D-0---0-13-0-13-0----0-13-0-13-0---0---8-8-8-8------8-8-5-5-5-5-----5-5
                                       pm…………………………………………………………………………

 play intro, verse, pre-chorus, chorus


interlude
D----------5—7----5—7----0-5-7----0-5-7
A----------
D-0--------

G-------------------|------------------------5--7--5-7---0--5-7---0-5-7
D-5-7--5-7--0--5-7--|3-5--3-5--0-3-5--0-3-5
A
D
                     p.m…………………………………………………………………………………………………………………………
                
                     x2|
D---5-7---5-7--0-5-7---|-3--5--3--5---0-3-5--0-3-5-
A                      |
D                      |

G-5--7--5-7---------5-5
D------------0-5-7------7
A
D
 x   x  x x

Bridge 
               X2|
G                |------------5-5-----5-7--5-7---5-7
D-5-7---5-7---777|-5-7---5-7------7-----------------
A                |
D                |

interlude2
D-------------------------------------10101010-xx1010-8--8---8
A-------------------------------------10101010-xx1010-5--5---5
D-0---0-13-0-13-0----0-13-0-13-0---0---8 8 8 8-xx 8 8-5--5---5

D10101010-xx1010----88----10101010
A10101010-xx1010----55----10101010
D-8 8 8 8-xx 8 8----55----10101010

play chorus

outro
D-5-7------5-7-----5-7-----5-7-----5-7-----------5-7
A-5-5------5-5-----5-5-----5-5-----5-5--5-5-5-5--5-5
D-0-0---0--0-0--0--0-0--0--0-0--0--0-0-----------0-0
        x       x       x       x       x x x x

Comments about this tab

gsusfreke - 2004-07-20

close b ut i was just at a pillar concert and it was in drop d. try the drop d version by the other guy


Jaewalkin - 2004-07-27

he did do this in dropped d


sanctusfan14 - 2004-08-28

thats perfect! not one flaw! good job!


lilsk8rboi411 - 2004-10-31

hey that is EXACTLY how they do it.. i have the book and u have it down completely correct!!


JoshuaJabbee - 2005-05-20

To me this sounds right, I looked as I listened to the song. I will try it, I know it sounds right! Good job, and continue listening to God's MuZak!
God Bless


Georgenewton - 2005-05-28

wicked tab man great job


TG-da-JF - 2005-12-11

jup... good to me...


guitarboy4Jesus - 2006-04-26

kind of confusing but if commpletly correct then I like already I gess good job.


guitarboy4Jesus - 2006-05-11

what is this book that you guys are talking about where can I get one of these books I meen can u get tham at the mall or something? please right back


.:RoCk4hIm:. - 2007-03-02

yo guitarboy, when there talkin about books there talkin about like an actual pillar book, they usually have notes and tabs...if u wanna get serious about rockin like pillar u should get one...u can get em at like most guitar stores...if u cant find one at like sam ash or anything amazon.com should also have em...im actually thinkin about gettin one...the awesome thing is there like 100% acurate so yeh hope that helped...kewl kewl man, ROCK 4 HIM!


Add a comment/correction

Complimentary Christian Ringtones
Dadamobile and CGR have teamed up to bring your favorite Christian artists right to your phone. Sign up today and get 10 complementary ringtones!
Tab Country
Did you know CGR has a sister site w/ country guitar tabs? Well we do! Its called Tab Country. It has a great archive with a lot of country tabs.
Rockin Tabs
Are you looking for a site that has rock guitar tabs? Then Rockintabs.com is the place for you. It is a budding site with many rock guitar tabs. Submit your tab today.
Tab Gallery
Tab Gallery has a compilation of christian, rock, and country tabs all in one place. Come visit us.