Guitar Tabs
song title    band name

Join Us Today!

Don't strum alone...
be a part of the largest online Christian music community. Browse thousands of guitar tabs and chat w/ musicians like yourself.


It's Free!

This tab has been rated a 4.20 out of 5 for accuracy. (5 votes)Sorry, but you must be logged in to rate this tab.
Click here to log-in, or you can click here to register.
(Registration is free)

All songs owned by corresponding publishing company. If you make copies of any song on this website, be sure to report your usage to CCLI.
Submitted by: nickman945236

Song: My Glorious
Artist: Deliriou5?

This song rocks, all the other tabs on here were either wrong or didn't have 
the solo. Here it is:

Standard Tuning:

Verse: (Heavy distortion, the C# is optional, slide to it from the D)

F#m                                      D         (C#)Bm
e-2-2-x-x-2-2-xxxxxx-2-2-x-x-2-2-xxxxxx--5-5-555555\4--2-2-xx-22222222
A-2-2-x-x-2-2-xxxxxx-2-2-x-x-2-2-xxxxxx--7-7-777777\6--3-3-xx-33333333
D-2-2-x-x-2-2-xxxxxx-2-2-x-x-2-2-xxxxxx--7-7-777777\6--4-4-xx-44444444   (x2)
G-4-4-x-x-4-4-xxxxxx-4-4-x-x-4-4-xxxxxx--7-7-777777\6--4-4-xx-44444444
B-4-4-x-x-4-4-xxxxxx-4-4-x-x-4-4-xxxxxx--5-5-555555\4--2-2-xx-22222222
E-2-2-x-x-2-2-xxxxxx-2-2-x-x-2-2-xxxxxx--5-5-555555\4--2-2-xx-22222222


Pre-Chorus:   (I use either a chorus effect, or 1 strum distorted)

D          A           B 

Chorus: (Distorted)
(Power Chords)
  A     E    F#m    E
D-7-----2-----4-----2
A-7-----2-----4-----2   (x2)
E-5-----0-----2-----0

Verse
Pre-Chorus
Chorus

Bridge:  (tag this bridge as long as you want, but make sure its long
enough for the solo. Accoustic chords are D and E)

e--5--4--2--0  (as long as you want, then kick into the solo)

Solo: (accoustic still plays D and E)

e-9----5--9--7--/--12--12----9b--7----9----7--/--12--9h12/14--12h14/16--

Play the bridge a few times

Chorus (accoustic only)
Chorus

end on A

Questions comments, email @ nickman@insidehoops.net

Have fun!  

Comments about this tab

N2HiMguitar33 - 2005-02-20

The intro and verse is F#m7, D, Bm
God Bless<><


guitarplayer67 - 2005-05-18

good try with the intro but i that aint quite it. here is the correct intro
e---------x-x-x-x-x-x-x-x---------x-x-x-x-x-x-x-x-----x-x-x-x-x-x-x-x--------
b---------x-x-x-x-x-x-x-x---------x-x-x-x-x-x-x-x-----x-x-x-x-x-x-x-x--------
g---------x-x-x-x-x-x-x-x---------x-x-x-x-x-x-x-x-7-7-x-x-x-x-x-x-x-x-7-6-4-4
d-4-4-7-7-x-x-x-x-x-x-x-x-4-4-7-7-x-x-x-x-x-x-x-x-7-7-x-x-x-x-x-x-x-x-7-6-4-4
a-4-4-7-7-x-x-x-x-x-x-x-x-4-4-7-7-x-x-x-x-x-x-x-x-5-5-x-x-x-x-x-x-x-x-5-6-2-2
e-2-2-5-5-x-x-x-x-x-x-x-x-2-2-5-5-x-x-x-x-x-x-x-x-----x-x-x-x-x-x-x-x--------
play it twice


guitarplayer67 - 2005-06-19

oops i messed up. skip every other line


guitaromaniac - 2005-07-26

this is how i play it
d u d d
e----------xxxxxx --------------
b----------xxxxxx --------------
g----------xxxxxx 7-7---7\6--4-4
d-2/4/7-7--xxxxxx x2 7-7---7\6--4-4 then repeat the whole thing
a-2/4/7-7--xxxxxx 5-5---5\4--2-2
E-0/2/5-5--xxxxxx --------------
after the second
time u go right into this
josh


guitaromaniac - 2005-07-26

that got messed up tthe last part is

e--------------
b--------------
g-7-7---7\6-4-4
d-7-7---7\6-4-4
a-5-5---5\4-2-2
E--------------


godspunk89 - 2006-05-02

O.K. Me and my band play this song a little different. I play at the West First Baptist and we've played this song and everyone seemed to enjoy it, plus I love this song cuz it's so fun to play and it rocks! I'll tab out the way I play it, take it or leave it.

Drum does a thing with the snare and bass right here that goes
(snare bass bass, snare bass bass)
(heavy distortion)
intro & verse
e-----------------------------------------------------
B-----------------------------------------------------
G-----------------------------------------------------
D--4---4--4--4--x-x-x-x-x-x--4---4--4--4--x-x-x-x-x-x-
A--4---4--4--4--x-x-x-x-x-x--4---4--4--4--x-x-x-x-x-x-
E--0h2-2--0--2--x-x-x-x-x-x--0h2-2--0--2--x-x-x-x-x-x-

e---------------------------------------------------
B---------------------------------------------------
G----7--7--7-x-x-x-x--7/6--4--4--4--4---------------
D----7--7--7-x-x-x-x--7/6--4--4--4--4---------------
A----5--5--5-x-x-x-x--5/4--2--2--2--2---------------
E---------------------------------------------------

pre-chorus
e-------------------------------------------------
B-------------------------------------------------
G---7--------7--------7-----7----7----7-----------
D---7--------7--------7-----7----7----7-----------
A---5--------5--------5-----4----4----4-----------
E-------------------------------------------------
and all you ever do, is change....(listen to song for timing and strumming)

e-----------------------------------
B-----------------------------------
G----4------------------------------
D----4--strum-----------------------
A----2------------------------------
E-----------------------------------
people... we believe that

chorus
e-----------------------------------------------
B-----------------------------------------------
G-----------------------------------------------
D---7----------------6--------------------------
A---7-strum----------7-strum--------------------
E---5----------------5--------------------------
God is bigger than....

e------------------------------
B------------------------------
G--------------9----------------
D--4-----------9-strum----------------
A--4-strum-----7-----------------
E--2----------------------------
brathe... leave....

go back to verse and play again and at the end play this

e----------------------------------
B----------------------------------
G-------7--------9-----------------
D-------7-strum--9-strum-----------
A-------5--------7-----------------
E----------------------------------
my glorious....

that's it, listen to the song for timing, god bless


SwosusFinest - 2008-01-17

actually here it is

e|------------xxxx------------xxxx--------xx-------------xxxx------|
B|-------2-2--xxxx-------2-2--xxxx--------xx-------------xxxx------|
G|-------2-2--xxxx-------2-2--xxxx--7777--xx--7-6--4444--xxxx------|
D|--4-44-2-2--xxxx--4-44-2-2--xxxx--7777--xx--7-6--4444--xxxx--4-44|
A|--4-44-0-0--xxxx--4-44-0-0--xxxx--5555--xx--5-4--2222--xxxx--4-44|
E|--0h22------xxxx--0h22------xxxx--------xx-------------xxxx--0h22|


SwosusFinest - 2008-01-17

ok hopefully you can piece that together lol


Add a comment/correction

Complimentary Christian Ringtones
Dadamobile and CGR have teamed up to bring your favorite Christian artists right to your phone. Sign up today and get 10 complementary ringtones!
Tab Country
Did you know CGR has a sister site w/ country guitar tabs? Well we do! Its called Tab Country. It has a great archive with a lot of country tabs.
Rockin Tabs
Are you looking for a site that has rock guitar tabs? Then Rockintabs.com is the place for you. It is a budding site with many rock guitar tabs. Submit your tab today.
Tab Gallery
Tab Gallery has a compilation of christian, rock, and country tabs all in one place. Come visit us.