Guitar Tabs
song title    band name

Join Us Today!

Don't strum alone...
be a part of the largest online Christian music community. Browse thousands of guitar tabs and chat w/ musicians like yourself.


It's Free!

This tab has been rated a 4.00 out of 5 for accuracy. (1 vote)Sorry, but you must be logged in to rate this tab.
Click here to log-in, or you can click here to register.
(Registration is free)

All songs owned by corresponding publishing company. If you make copies of any song on this website, be sure to report your usage to CCLI.
Submitted by: ariaman

Band:East West
Album:Hope In Anguish
Song:Envy 
Tabbed by:ariaman(eagleear00@yahoo.com)
Drop B tuning


Okay, this is just the intro, it's probably not right, but 
it's passable.


B---300200300200300---

You just do this the first time,then it gets longer.

F#-----------------58530--
B---300200300200300-------


Then it starts into the verse. I think that might be it, 
repeat it about three times, and buy this cd. Really great 
album and song, email me with corrections and questions.

Comments about this tab

ariaman - 2004-05-06

Ok, this is the original tabber, and here is the real intro(i think)
Drop B

B--4-3-0-4-3-0-4-3-0-4-3-0-4-3-0-------------
F#-4-3-0-4-3-0-4-3-0-4-3-0-4-3-0-5-8-5-3-0-3-
B--4-3-0-4-3-0-4-3-0-4-3-0-4-3-0-------------

and thats all...


CarpeNoctum - 2004-05-14

you almost have it but not quite here's how it goes

B--4-3-0-4-3-0-4-3-0-4-3-0-4-3-0----1------------------|
F#-4-3-0-4-3-0-4-3-0-4-3-0-4-3-0----1--4---------3-----|
B--4-3-0-4-3-0-4-3-0-4-3-0-4-3-0----1-----4--3-0---4---|

play that the first time then play this...

B--4-3-0-4-3-0-4-3-0-4-3-0-4-3-0----1---4---------3-4---|
F#-4-3-0-4-3-0-4-3-0-4-3-0-4-3-0----1------4--3-0-------|
B--4-3-0-4-3-0-4-3-0-4-3-0-4-3-0----1-------------------|

then play the first one again then play that one and end on

|-1---4---------3-4-3--|
|-1------4--3-0--------|
|-1--------------------|

and that's it


Add a comment/correction

Complimentary Christian Ringtones
Dadamobile and CGR have teamed up to bring your favorite Christian artists right to your phone. Sign up today and get 10 complementary ringtones!
Tab Country
Did you know CGR has a sister site w/ country guitar tabs? Well we do! Its called Tab Country. It has a great archive with a lot of country tabs.
Rockin Tabs
Are you looking for a site that has rock guitar tabs? Then Rockintabs.com is the place for you. It is a budding site with many rock guitar tabs. Submit your tab today.
Tab Gallery
Tab Gallery has a compilation of christian, rock, and country tabs all in one place. Come visit us.