Guitar Tabs
song title    band name

Join Us Today!

Don't strum alone...
be a part of the largest online Christian music community. Browse thousands of guitar tabs and chat w/ musicians like yourself.


It's Free!

This tab has been rated a 5.00 out of 5 for accuracy. (2 votes)Sorry, but you must be logged in to rate this tab.
Click here to log-in, or you can click here to register.
(Registration is free)

All songs owned by corresponding publishing company. If you make copies of any song on this website, be sure to report your usage to CCLI.
Submitted by: jesseha

Psalm 145
 -Shane Barnard

Transcribed by Jesse Ha

CAPO 4

All relative to capo
Riff 1       
                                          Slide
                                            ^     
---------------------------------------------------0------
---3-3-3-2h3---3-3h2--2h3h2-----2-2h3---3-----------------
--------4-------4---4------4-----3---4-4---4-6--6h7-7-7h6-
----4----------------4------4---------4----5-7-7-----7----
-2-----------0-----------------------------0-0------------
------------------------------3------------3-5------------ (5x)

Riff 2
    
----3h2--------0------------------------
--3----3--3-3--3-3--3-------3--3------3-
---2----22---2-2--2----0-0h2-2---0-0h2--
-0-------------0---0----0-----0---0-----
-----------4---4------------------------
---------------0------3---------3------- (3x)

----3h2--------0----------------------------------0-
--3----3--3-3--3-3--3--3-33--3----33--3-------3---3-
---2----22---2-2--2-----2--2----2---2----0-0h2-2--2-
-0-------------0---0--------0----2---0----0-----0-0-
-----------4---4------2--------0------------------0-
---------------0------------------------3---------3-

Verse
Riff 1, Riff 2, Riff 1

Chorus
(Double strum, with muted strums in between)

-00--00--00--00-
-33--33--33--00-
-44--44--22--77-
-44--44--00--77-
-22--00--00--00-
-00--00--33--55-



Comments about this tab

eckoxluke - 2004-10-30

Jesse ha from joong bu?

nice tab.


swish0819 - 2005-04-19

great tab, just before the slide in the intro, i think he hammers the 3rd(g) string from the bottom from 0h2, instead of the hammer you have as 2h3 on the 2nd(b) string, it matches the slide you have as well sliding from an A to a B, just as you hammer from an A to a B as described above. excellent tab


jesseha - 2005-09-30

This is just the basic jist... Shane varies around in every version and every live recording. So try things out. add a major2 or minor2 here and there.. see if it sounds good


pm008 - 2007-09-06

You guys are making it too hard. Try this and see if it doesnt help you. Take two capos, put one on the second fret. Now take the other one and turn it around and place it on the fourth, the back should cover only your A, D, and G, while your other strings are left open. If it interferes with any of the strings, cut the plastic just a little bit. Shane plays a lot of songs like this, and actually showed this to me during a camp one year. It conceptually is a partial capo with out buying one specifically for that purpose. You'll find the chords if you feel around and notice the changes are a lot smoother.


Add a comment/correction

Complimentary Christian Ringtones
Dadamobile and CGR have teamed up to bring your favorite Christian artists right to your phone. Sign up today and get 10 complementary ringtones!
Tab Country
Did you know CGR has a sister site w/ country guitar tabs? Well we do! Its called Tab Country. It has a great archive with a lot of country tabs.
Rockin Tabs
Are you looking for a site that has rock guitar tabs? Then Rockintabs.com is the place for you. It is a budding site with many rock guitar tabs. Submit your tab today.
Tab Gallery
Tab Gallery has a compilation of christian, rock, and country tabs all in one place. Come visit us.