Guitar Tabs
song title    band name

Join Us Today!

Don't strum alone...
be a part of the largest online Christian music community. Browse thousands of guitar tabs and chat w/ musicians like yourself.


It's Free!

This tab has been rated a 4.07 out of 5 for accuracy. (14 votes)Sorry, but you must be logged in to rate this tab.
Click here to log-in, or you can click here to register.
(Registration is free)

All songs owned by corresponding publishing company. If you make copies of any song on this website, be sure to report your usage to CCLI.
Submitted by: Adam K

Skillet-Savior


Intro
E--------------1----------------------1-----3-------
B--------------3----------------------1-----5-------
G------------2-3------------------2---2-----5-2-----
D--0--2h3-2----3--------0--2h3-2------3-3h5-5------- 
A----------3---1----------------3-----3-----3-------
D-0--------------------0----------------------------

E--------------1----------------------1----
B--------------3----------------------1----
G------------2-3------------------2---2----
D--0--2h3-2----3--------0--2h3-2------3----
A----------3---1----------------3-----3----
D-0--------------------0-------------------
I'm not putting timing or # of strokes on this song
Intro 2
D-0--8--
A-0--8-- x4
D-0--8--

Verse
E--------------1----------------------1-----3-------
B--------------3----------------------1-----5-------
G------------2-3------------------2---2-----5-2-----
D--0--2h3-2----3--------0--2h3-2------3-3h5-5------- 
A----------3---1----------------3-----3-----3------- x2
D-0--------------------0----------------------------
Then
E--------------1----------------------1-----3-------
B--------------3----------------------1-----5-------
G------------2-3------------------2---2-----5-2-----
D--0--2h3-2----3--------0--2h3-2------3-3h5-5------- 
A----------3---1----------------3-----3-----3-------
D-0--------------------0----------------------------

E--------------1--------------------------------
B--------------3--------------------------------
G------------2-3--------------------------------
D--0--2h3-2----3--------0--2h3-2---xx-0-0-xx-0-0
A----------3---1----------------3--xx-0-0-xx-0-0
D-0--------------------0-----------xx-0-0-xx-0-0

Chorus
G-----------5--3----------------------
D-0--0--0---5--3--0--0--0---3-2-------
A-0--0--0---3--1--0--0--0---3-2------- x2
D-0--0--0---------0--0--0---3-2-------

Intro 2
Verse
Chorus
Post-Chorus
play chorus during this
E-----------------------------------------
B-5-6------5-6---1---5-6---10-11---5-6---1
G------2-3--------------------------------

Bridge
Skillet-Savior
Drop D Tuning D-A-D-G-B-E

Intro
E--------------1----------------------1-----3-------
B--------------3----------------------1-----5-------
G------------2-3------------------2---2-----5-2-----
D--0--2h3-2----3--------0--2h3-2------3-3h5-5------- 
A----------3---1----------------3-----3-----3-------
D-0--------------------0----------------------------

E--------------1----------------------1----
B--------------3----------------------1----
G------------2-3------------------2---2----
D--0--2h3-2----3--------0--2h3-2------3----
A----------3---1----------------3-----3----
D-0--------------------0-------------------
I'm not putting timing or # of strokes on this song
Intro 2
D-0--8--
A-0--8-- x4
D-0--8--

Verse
E--------------1----------------------1-----3-------
B--------------3----------------------1-----5-------
G------------2-3------------------2---2-----5-2-----
D--0--2h3-2----3--------0--2h3-2------3-3h5-5------- 
A----------3---1----------------3-----3-----3------- x2
D-0--------------------0----------------------------
Then
E--------------1----------------------1-----3-------
B--------------3----------------------1-----5-------
G------------2-3------------------2---2-----5-2-----
D--0--2h3-2----3--------0--2h3-2------3-3h5-5------- 
A----------3---1----------------3-----3-----3-------
D-0--------------------0----------------------------

E--------------1--------------------------------
B--------------3--------------------------------
G------------2-3--------------------------------
D--0--2h3-2----3--------0--2h3-2---xx-0-0-xx-0-0
A----------3---1----------------3--xx-0-0-xx-0-0
D-0--------------------0-----------xx-0-0-xx-0-0

Chorus
G-----------5--3----------------------
D-0--0--0---5--3--0--0--0---3-2-------
A-0--0--0---3--1--0--0--0---3-2------- x2
D-0--0--0---------0--0--0---3-2-------

Intro 2
Verse
Chorus
Post-Chorus
play chorus during this
E-----------------------------------------
B-5-6------5-6---1---5-6---10-11---5-6---1
G------2-3--------------------------------

Bridge-
Palm mutedSkillet-Savior
Drop D Tuning D-A-D-G-B-E

Intro
E--------------1----------------------1-----3-------
B--------------3----------------------1-----5-------
G------------2-3------------------2---2-----5-2-----
D--0--2h3-2----3--------0--2h3-2------3-3h5-5------- 
A----------3---1----------------3-----3-----3-------
D-0--------------------0----------------------------

E--------------1----------------------1----
B--------------3----------------------1----
G------------2-3------------------2---2----
D--0--2h3-2----3--------0--2h3-2------3----
A----------3---1----------------3-----3----
D-0--------------------0-------------------
I'm not putting timing or # of strokes on this song
Intro 2
D-0--8--
A-0--8-- x4
D-0--8--

Verse
E--------------1----------------------1-----3-------
B--------------3----------------------1-----5-------
G------------2-3------------------2---2-----5-2-----
D--0--2h3-2----3--------0--2h3-2------3-3h5-5------- 
A----------3---1----------------3-----3-----3------- x2
D-0--------------------0----------------------------
Then
E--------------1----------------------1-----3-------
B--------------3----------------------1-----5-------
G------------2-3------------------2---2-----5-2-----
D--0--2h3-2----3--------0--2h3-2------3-3h5-5------- 
A----------3---1----------------3-----3-----3-------
D-0--------------------0----------------------------

E--------------1--------------------------------
B--------------3--------------------------------
G------------2-3--------------------------------
D--0--2h3-2----3--------0--2h3-2---xx-0-0-xx-0-0
A----------3---1----------------3--xx-0-0-xx-0-0
D-0--------------------0-----------xx-0-0-xx-0-0

Chorus
G-----------5--3----------------------
D-0--0--0---5--3--0--0--0---3-2-------
A-0--0--0---3--1--0--0--0---3-2------- x2
D-0--0--0---------0--0--0---3-2-------

Intro 2
Verse
Chorus
Post-Chorus
play chorus during this
E-----------------------------------------
B-5-6------5-6---1---5-6---10-11---5-6---1
G------2-3--------------------------------

Bridge
D-0--8--0--8--0--8--0--8---0--8--0--8--0--8--0--8-
A-0--8--0--8--0--8--0--8---0--8--0--8--0--8--0--8- x2
D-0--8--0--8--0--8--0--8---0--8--0--8--0--8--0--8-
P.m......................                         

Interlude
G-5--3--5--3--7h5-7-5--3--5--3--7h5-7-   
D-5--3--5--3--------5--3--5--3--------  
A-3--1--3--1--------3--1--3--1--------   
D-------------------------------------   
Then
-0-0--2-2--3-3--5-5-5-5---
-0-0--2-2--3-3--5-5-5-5--- x4
-0-0--2-2--3-3--5-5-5-5---

Chorus 2
E--------------1----------------------1-----3-------
B--------------3----------------------1-----5-------
G------------2-3------------------2---2-----5-2-----
D--0--2h3-2----3--------0--2h3-2------3-3h5-5------- 
A----------3---1----------------3-----3-----3-------
D-0--------------------0----------------------------

E--------------1--------------------1--------------
B--------------3--------------------1--------------
G------------2-3------------------2-2--------------
D--0--2h3-2----3--------0--2h3-2----3--3-3-3-3-3-3-
A----------3---1----------------3---3--3-3-3-3-3-3-
D-0--------------------0---------------3-3-3-3-3-3-
                                    P.m...........

Chorus 
G-----------5--3----------------------
D-0--0--0---5--3--0--0--0---3-2-------
A-0--0--0---3--1--0--0--0---3-2------- x4
D-0--0--0---------0--0--0---3-2-------

Ending
D-0--8-   -0--0--0
A-0--8- x3-0--0--0
D-0--8-   -0--0--0

Tabbed by Adam K.   I changed the tune and I added the acoustic Intro thats why you should add it. Thanks.

Comments about this tab

Adam K - 2004-03-13

Sorry, They really messed up my song, but I hope you can figure it out.


Unduion - 2004-03-21

Did you remember John's wifie plays guitar in this one too? With like, this amazing, gorgeous-o red sparkly guitar? There's two guitars for most of the song bro...


seraph - 2004-03-22

Korey does play an awesomley beautiful sparkly guitar, but if you watch the video, she mostly just plays power chords. She's the great Skillet keyboardist, but I think she's still learning guitar. Not that she's not good at it, but their guitarist is there to be the guitarist that does all the hard stuff, and in the video it looks like he's playing all those notes on his own.


p2008j - 2004-03-23

This song need's to be played in drop C, which is CGCFAD from lowest to highest


Adam K - 2004-04-22

Skillet-Savior
Tuning D-C-G-F-A-D

Intro
Gtr.1
D[---------------0-0-0-----------------1-1-2----]
A[---------------1-1-1-----------------0-0-3----]
F[-------------4-0-0-0--4------------4-0-0-2--4-]
C[--2-4h5-4------2-2-2----2-4h5-4------0-0-0----]
G[---------5-5---3-3-3-----------5-5---2-2------]
D[-0---------------------0-------------3-3------]

D[---------------0-0-0-----------------1-]
A[---------------1-1-1-----------------0-]
F[-------------4-0-0-0--4------------4-0-]
C[--2-4h5-4------2-2-2----2-4h5-4------0-]
G[---------5-5---3-3-3-----------5-5---2-]
D[-0---------------------0-------------3-]
Gtr.2
F[------5---------5-]
C[-2----5----2----5-]
G[-2----3----2----3-]x2
D[-0---------0------]

Verse 1
Gtr.1
D[---------------0-0-0-----------------1-1-2----]
A[---------------1-1-1-----------------0-0-3----]
F[-------------4-0-0-0--4------------4-0-0-2--4-]
C[--2-4h5-4------2-2-2----2-4h5-4------0-0-0----]
G[---------5-5---3-3-3-----------5-5---2-2------]x2
D[-0---------------------0-------------3-3------]
Then just chords
Em D C
Em D G D
Em D C
Em D
Then...
Gtr.2
C[-xxxx-2-2-xxxx-2-2-]
G[-xxxx-2-2-xxxx-2-2-]
D[-xxxx-0-0-xxxx-0-0-]

Chorus
Gtr.2
F[----------7--5----------------]
C[-2--2--2--7--5--2--2--2--5--4-]
G[-2--2--2--5--3--2--2--2--5--5-]x2
D[-0--0--0--------0--0--0--3--2-]

Post-Chorus
Gtr.2
F[------5---------5-]
C[-2----5----2----5-]
G[-2----3----2----3-]x2
D[-0---------0------]

Verse 2
(Same as Verse 1)
Chorus

Post-Chorus 2
Gtr.1
A[-7-8-----7-8--3--7-8--12-13--7-8--3-]
F[-----4-5----------------------------]
Gtr.2
F[----------7--5----------------]
C[-2--2--2--7--5--2--2--2--5--4-]
G[-2--2--2--5--3--2--2--2--5--5-]x2
D[-0--0--0--------0--0--0--3--2-]

Bridge
Gtr.1
D[-00338877-00338877-00338877-00338877-]
Gtr.2
F[------5---------5-]
C[-2----5----2----5-]
G[-2----3----2----3-]
D[-0---------0------]
Gtr.1
D[-00338877-00338877-00338877-00338877-]
P.M....................................
Gtr.2
F[------5---------5-]
C[-2----5----2----5-]
G[-2----3----2----3-]
D[-0---------0------]
Then...
F[-7--5---7--5-979-]
C[-7--5---7--5-----]
G[-5--3---5--3-----]x2
D[-----------------]
Then...
Gtr.1
F[-75757575-10/10-]x4
Gtr.2
C[-2--4-5--7-7-]
G[-2--4-5--7-7-]x4
D[-0--2-3--5-5-]

Chorus 2
Gtr.1
D[---------------0-0-0-----------------1-1-2----]
A[---------------1-1-1-----------------0-0-3----]
F[-------------4-0-0-0--4------------4-0-0-2--4-]
C[--2-4h5-4------2-2-2----2-4h5-4------0-0-0----]
G[---------5-5---3-3-3-----------5-5---2-2------]
D[-0---------------------0-------------3-3------]

D[---------------0-0-0-----------------1-]
A[---------------1-1-1-----------------0-]
F[-------------4-0-0-0--4------------4-0-]
C[--2-4h5-4------2-2-2----2-4h5-4------0-]
G[---------5-5---3-3-3-----------5-5---2-]
D[-0---------------------0-------------3-]
Gtr.2
C[-222222-]
G[-222222-]
D[-000000-]
P.M.......

Chorus
F[----------7--5----------------]
C[-2--2--2--7--5--2--2--2--5--4-]
G[-2--2--2--5--3--2--2--2--5--5-]x4
D[-0--0--0--------0--0--0--3--2-]

Ending
F[------5---------5-]
C[-2----5----2----5-]
G[-2----3----2----3-]x3
D[-0---------0------]

C[-2--2--2-]
G[-2--2--2-]
D[-0--0--0-]

Adam K.




Adam K - 2004-05-11

Is this better for you?


Shaneathin86 - 2004-05-18

i don't like it


Adam K - 2004-05-20

you need a life.


turkweed - 2004-05-23

i think this tab is pretty much almost 100% correct. ADAM, YOU ARE GOOD


youthmaster07 - 2004-06-21

while it is true that korey plays rythym guitar in this song, she also switches back and forth between guitar and keyboards. they don't show it in the video, but i have seen them in concert performing this song. also, the guitarist is really, really awesome - he could probably pull this off.


mattster88 - 2004-06-22

Sorry adam, i dont hear a G7 in there at all. The tuning is right though.


mattster88 - 2004-06-22

Sorry adam, i dont hear a G7 in there at all. The tuning is right though.


mattster88 - 2004-06-22

|-----------------------(3)--------------------------------------------|
A|--------------------3---3---------------------0----0-----0-----------|
F|-------0h2p0-----2------4----------0h2p0----2------4-----4-----------|
C|-----2--------0---------5--------2--------0--------5-----7-----------|
G|------------------------3--------------------------5-----4-----------|
C|---2---------------------------2------------------(5)---(4)----------|

Strum the chord as many times as needed, I just have the chord here.

D|---------------------(3)---------------------------------------------|
A|-----------------3----3------------------0---0-----------------------|
F|-------0h2p0---2------4--------0h2p0---2-----4-----------------------|
C|-----2-------0--------5------2-------0-------5--------x-x-x-x-x-x----|
G|----------------------3----------------------5--------x-x-x-x-x-x----|
C|---2-----------------------2----------------(5)-------x-x-x-x-x-x----|
into chorus....

Here's the right acoustic part. Tuned drop C (DAFCGC).


Adam K - 2004-06-24

Skillet-Savior
Tuning D-C-G-F-A-D

Intro
Gtr.1
D[---------------0-0-0-----------------3-3-2----]
A[---------------1-1-1-----------------0-0-3----]
F[-------------4-0-0-0--4------------4-0-0-2--4-]
C[--2-4h5-4------2-2-2----2-4h5-4------0-0-0----]
G[---------5-5---3-3-3-----------5-5---2-2------]
D[-0---------------------0-------------3-3------]

D[---------------0-0-0-----------------3-]
A[---------------1-1-1-----------------0-]
F[-------------4-0-0-0--4------------4-0-]
C[--2-4h5-4------2-2-2----2-4h5-4------0-]
G[---------5-5---3-3-3-----------5-5---2-]
D[-0---------------------0-------------3-]
Gtr.2
F[------5---------5-]
C[-2----5----2----5-]
G[-2----3----2----3-]x2
D[-0---------0------]

Verse 1
Gtr.1
D[---------------0-0-0-----------------3-3-2----]
A[---------------1-1-1-----------------0-0-3----]
F[-------------4-0-0-0--4------------4-0-0-2--4-]
C[--2-4h5-4------2-2-2----2-4h5-4------0-0-0----]
G[---------5-5---3-3-3-----------5-5---2-2------]x2
D[-0---------------------0-------------3-3------]
Then just chords
Em D C
Em D G D
Em D C
Em D
Then...
Gtr.2
C[-xxxx-2-2-xxxx-2-2-]
G[-xxxx-2-2-xxxx-2-2-]
D[-xxxx-0-0-xxxx-0-0-]

Chorus
Gtr.2
F[----------7--5----------------]
C[-2--2--2--7--5--2--2--2--5--4-]
G[-2--2--2--5--3--2--2--2--5--5-]x2
D[-0--0--0--------0--0--0--3--2-]

Post-Chorus
Gtr.2
F[------5---------5-]
C[-2----5----2----5-]
G[-2----3----2----3-]x2
D[-0---------0------]

Verse 2
(Same as Verse 1)
Chorus

Post-Chorus 2
Gtr.1
A[-7-8-----7-8--3--7-8--12-13--7-8--3-]
F[-----4-5----------------------------]
Gtr.2
F[----------7--5----------------]
C[-2--2--2--7--5--2--2--2--5--4-]
G[-2--2--2--5--3--2--2--2--5--5-]x2
D[-0--0--0--------0--0--0--3--2-]

Bridge
Gtr.1
D[-00338877-00338877-00338877-00338877-]
Gtr.2
F[------5---------5-]
C[-2----5----2----5-]
G[-2----3----2----3-]
D[-0---------0------]
Gtr.1
D[-00338877-00338877-00338877-00338877-]
P.M....................................
Gtr.2
F[------5---------5-]
C[-2----5----2----5-]
G[-2----3----2----3-]
D[-0---------0------]
Then...
F[-7--5---7--5-979-]
C[-7--5---7--5-----]
G[-5--3---5--3-----]x2
D[-----------------]
Then...
Gtr.1
F[-97979797-12/12-]x4
Gtr.2
C[-2--4-5--7-7-]
G[-2--4-5--7-7-]x4
D[-0--2-3--5-5-]

Chorus 2
Gtr.1
D[---------------0-0-0-----------------3-3-2----]
A[---------------1-1-1-----------------0-0-3----]
F[-------------4-0-0-0--4------------4-0-0-2--4-]
C[--2-4h5-4------2-2-2----2-4h5-4------0-0-0----]
G[---------5-5---3-3-3-----------5-5---2-2------]
D[-0---------------------0-------------3-3------]

D[---------------0-0-0-----------------3-]
A[---------------1-1-1-----------------0-]
F[-------------4-0-0-0--4------------4-0-]
C[--2-4h5-4------2-2-2----2-4h5-4------0-]
G[---------5-5---3-3-3-----------5-5---2-]
D[-0---------------------0-------------3-]
Gtr.2
C[-222222-]
G[-222222-]
D[-000000-]
P.M.......

Chorus
F[----------7--5----------------]
C[-2--2--2--7--5--2--2--2--5--4-]
G[-2--2--2--5--3--2--2--2--5--5-]x4
D[-0--0--0--------0--0--0--3--2-]

Ending
F[------5---------5-]
C[-2----5----2----5-]
G[-2----3----2----3-]x3
D[-0---------0------]

C[-2--2--2-]
G[-2--2--2-]
D[-0--0--0-]
There. No G7.
@d@m K.



SPWguitar - 2004-08-17

i like it


Adam K - 2004-10-23

Intro
Gtr.1
D[---------------0-0-0-----------------3-3-2----]
A[-------------0-1-1-1--0------------0-0-0-3--0-]
F[-------------0-0-0-0--0------------0-0-0-2--0-]
C[--2-4h5-4------2-2-2----2-4h5-4------0-0-0----]
G[---------5-5---3-3-3-----------5-5---2-2------]
D[-0---------------------0-------------3-3------]

D[---------------0-0-0-----------------3-]
A[-------------0-1-1-1--0------------0-0-]
F[-------------0-0-0-0--0------------0-0-]
C[--2-4h5-4------2-2-2----2-4h5-4------0-]
G[---------5-5---3-3-3-----------5-5---2-]
D[-0---------------------0-------------3-]


Adam K - 2004-12-06

This sounds awesome,try it out.

Intro
Gtr.1
D[----------------------------------------------]
A[-------------0-0-0-0--0------------0-0-0-0--0-]
F[-------------0-0-0-0--0------------0-0-0-0--0-]
C[--2-4h5-4------2-2-2----2-4h5-4------5-5-5----]
G[---------5-5---3-3-3-----------5-5---5-5-7----]
D[-0---------------------0-------------3-3------]

D[---------------------------------------]
A[-------------0-0-0-0--0------------0-0-]
F[-------------0-0-0-0--0------------0-0-]
C[--2-4h5-4------2-2-2----2-4h5-4------5-]
G[---------5-5---3-3-3-----------5-5---5-]
D[-0---------------------0-------------3-]


Adam K - 2004-12-06

Oops!

D[----------------------------------------------]
A[-------------0-0-0-0--0------------0-0-0-0--0-]
F[-------------0-0-0-0--0------------0-0-0-0--0-]
C[--2-4h5-4------5-5-5----2-4h5-4------5-5-5----]
G[---------5-5---3-3-3-----------5-5---5-5-7----]
D[-0---------------------0-------------3-3------]

D[---------------------------------------]
A[-------------0-0-0-0--0------------0-0-]
F[-------------0-0-0-0--0------------0-0-]
C[--2-4h5-4------5-5-5----2-4h5-4------5-]
G[---------5-5---3-3-3-----------5-5---5-]
D[-0---------------------0-------------3-]

There


UrMyOnlyDesire7 - 2004-12-10

I think the into you has 1st was right i have played it along with the Cd and it sounds about right the way u corrected it doesn't sound anything like it.


JohnM - 2004-12-24

except... Drop C is CGCFAD... lowest string being C not D... hence the name 'Drop C'... :o)


Adam K - 2004-12-28

I didn't mean for it to be drop C. I meant DCGFAD.


rock4christ08 - 2005-01-07

and what in the world is DCGFAD supposed to be? An inverted Drop D/C ? the intro you have the first time sounds more close to it than anything else.


Adam K - 2005-01-12

No, actually its 2 steps down from standard tuning. So its more
like, a low acoustic tuning, not an inverted one.


rock4christ08 - 2005-01-16

Is there a name for this tuning?


Adam K - 2005-01-25

It's called "Dropped Standard" tuning.


james/jr. - 2005-02-09

um..the chorus goes like this. unless u play it in drop C

e-------------------------------
B------------------------------
G--------5--3------------------
D-0-0-0--5--3--0-0-0---3---10-------
A-0-0-0--3--1--0-0-0---3---10--------
D-0-0-0--------0-0-0---3---10------


rock4christ08 - 2005-02-11

hah, thanks A.K.


burningfaith08 - 2005-02-27

gosh ur dumb ray! lol jk i didnt know that either. dude, adam apparently u rock cuz ray (rockforchrist) speaks very highly of ur work and thats saying something so keep tabbing! see if u can figure out not ready to die by demon hunter. someone needs to


burningfaith08 - 2005-02-27

OOPS! (Rock4christ08)*


David wood - 2005-04-02

Hey A.K can you please tab "everything about you" by sanctus real thanx


bewierd935 - 2005-04-02

Dude, Korey is awesome, but that stupid sparkley guitar sucks big time!
Also, who's this Adam K, and why does he think he's so hot? I mean, come on! The guy waltzes in and rewrites the freakin' song! Standard tuning...I mean, get a life!


guitardude1 - 2005-04-15

yea............benplays all the solos and lead guitar, kory is just rythm guitar


guitardude1 - 2005-04-15

that guitar cost between 2 and 4 k (gmpguitars.com)


CRloveSkillet13 - 2005-05-23

Hey,if you go to powertabs.net there is a powertab of savior that
someone did,and it sounds pretty good!Just thought that might be
a little helpful.


JC_Rocker - 2006-05-28

call me stupid, but what was wrong with the original drop D tuning??? Me and sum friends did it for a battle of the bands in Drop D and it sounded fine... or I could just be an idiot that doesn't know what he's talking about...


tfkskillet - 2006-07-29

Yes drop D is mostly the heavier stuff so u can get the lower notes but if u can play it in power chords thats finr i prefer drop d cuz its easier but whatever is cool!!!


go4broke28 - 2008-10-24

alright, i'm very mixed up by this tab, but the comments make it a little bit more clear. Why is everything in such a crazy tuning???


godsmusicgeek - 2011-04-22

i think ADAM has a bit of an attitude problem. you need to CHILL OUT dude!


Add a comment/correction

Complimentary Christian Ringtones
Dadamobile and CGR have teamed up to bring your favorite Christian artists right to your phone. Sign up today and get 10 complementary ringtones!
Tab Country
Did you know CGR has a sister site w/ country guitar tabs? Well we do! Its called Tab Country. It has a great archive with a lot of country tabs.
Rockin Tabs
Are you looking for a site that has rock guitar tabs? Then Rockintabs.com is the place for you. It is a budding site with many rock guitar tabs. Submit your tab today.
Tab Gallery
Tab Gallery has a compilation of christian, rock, and country tabs all in one place. Come visit us.