Guitar Tabs
song title    band name

Join Us Today!

Don't strum alone...
be a part of the largest online Christian music community. Browse thousands of guitar tabs and chat w/ musicians like yourself.


It's Free!

This tab has been rated a 3.00 out of 5 for accuracy. (7 votes)Sorry, but you must be logged in to rate this tab.
Click here to log-in, or you can click here to register.
(Registration is free)

All songs owned by corresponding publishing company. If you make copies of any song on this website, be sure to report your usage to CCLI.
Submitted by: mrowlett01

Artist: Seven Places
Song: Landslide
Transcribed by: Matt Rowlett (mrowlett01@hotmail.com)

This probally isnt completely right, but heres a good 
idea of how the song goes. Play around with it and 
it isnt too hard to figure out. 

Intro Light Distortion[palm muted]
E|---------------------------------------| 
B|---------------------------------------|   
G|----------11--999999--11---------------|
D|--999999--11--999999--11--999999-------|
A|--999999---9--777777---9--999999-------|
D|--777777------------------777777-------|

Same thing
Crank the distotion here
E|---------------------------------------| 
B|---------------------------------------|   
G|----------11--999999--11---------------|
D|--999999--11--999999--11--999999-------|
A|--999999---9--777777---9--999999-------|
D|--777777------------------777777-------|


The verse follows the same basic Chord Progression
[Palm muted]
     

Chorus
E|---------------------| 
B|---------------------|   
G|-------9----11-------|
D|--9----9----11-------|
A|--9----7-----7-------|
D|--7------------------|


"Heres to the name...." Part
E|--------------------| 
B|--------------------|   
G|--------------------|
D|--11---9---11-------|
A|--11---9---11-------|
D|--9----7---9--------|



Solo after chorus 
E|-----------------------------------|
B|-----------------------------------|
G|-----------------------------------|
D|-----------------------------------| X2
A|-----9-----9--9--7--6-----7--6-----|
D|--7-----7--------------9--------7--|


End of solo 
E|-----------------------------------|
B|-----------------------------------|
G|-----------------------------------|
D|-----------------------------------| X2
A|---------------------6-------------|
D|-7--9--9--9--7--9--7---7-----------|

let last note ring






Comments about this tab

Woltrap - 2004-12-15

I think the intro is more like this

E|-------------------------------------|
B|-------------------------------------|
G|----------9-9999-----------9-9999----|
D|--9999999-9-999999-9999999-9-999999--|
A|--6666699-7-777799-6666699-7-777799--|
D|-------------------------------------|


ForgivenPilgrim - 2005-05-25

Can somebody pleeaase tab or put the chords to Seven Places' "Watch" song off of the Hear us Say Jesus cd? I love that song, but I'm not very good at figuring songs out yet...


whatsmyageagain - 2005-05-26

The Intro goes like this:
-------------------------------------------
-------------------------------------------
-------------------------------------------
--7-7-7-7-7-7--7-7-7-7-7--7-7-7-7--7-7-7-7- 2X
--4-4-4-4-4-4--7-7-7-7-7--5-5-5-5--7-7-7-7-
-------------------------------------------


johndo9186 - 2005-10-30

If you say that this song is in drop D, then why are you putting in power chords that only work in E? I just thought that I'd point that out.


HolyRockJfreak - 2006-01-02

Woltrap has the right intro, I made a more accurate version of this song, at least I think, and I'll post it, it's a combination of the ohter two tabs already, and I based some stuff off the music video.


angelsfreeek - 2006-03-23

i think the solo sounds a lot better like this:

Normal tuning
e|------------------------------------------------------|
B|------------------------------------------------------|
G|------------------------------------------------------|
D|------------------------------------------------------|
A|--------9-9-9----------9-9-9---9--7--6----7--6--4--2--| (2x)
E|--7-7-7-------9-7-7-7--------9----------9-------------|


cngp90 - 2006-04-22

I play the intro like this-

e---------------------------------------|
B---------------------------------------|
G-8-8-8-8-8-8---7-7---5-5-5-5-5-5---7-7-|
D-9-9-9-9-9-9---7-7---5-5-5-5-5-5---7-7-|
A-6-6-6-6-6-6---9-9---7-7-7-7-7-7---9-9-|
E---------------------------------------|


stellarkartdude - 2006-09-10

Here is how i think the intro goes

D-9-9-9-9-9-9-9-9-9-9-9-9-
A-6-6-6-6-6-9-9-7-7-7-7-6- Repeat 2x
E-------------------------

this is an awesome song


Add a comment/correction

Complimentary Christian Ringtones
Dadamobile and CGR have teamed up to bring your favorite Christian artists right to your phone. Sign up today and get 10 complementary ringtones!
Tab Country
Did you know CGR has a sister site w/ country guitar tabs? Well we do! Its called Tab Country. It has a great archive with a lot of country tabs.
Rockin Tabs
Are you looking for a site that has rock guitar tabs? Then Rockintabs.com is the place for you. It is a budding site with many rock guitar tabs. Submit your tab today.
Tab Gallery
Tab Gallery has a compilation of christian, rock, and country tabs all in one place. Come visit us.