Guitar Tabs
song title    band name

Join Us Today!

Don't strum alone...
be a part of the largest online Christian music community. Browse thousands of guitar tabs and chat w/ musicians like yourself.


It's Free!

This tab has been rated a 2.33 out of 5 for accuracy. (3 votes)Sorry, but you must be logged in to rate this tab.
Click here to log-in, or you can click here to register.
(Registration is free)

All songs owned by corresponding publishing company. If you make copies of any song on this website, be sure to report your usage to CCLI.
Submitted by: jesseha

Be Near
-Shane Barnard

Transcribed by Jesse Ha

This is the live version at the BYX island party 2002
Radio edit version is at the bottom

Listen to the song to pick up the strumming
Im just outlining the chords

capo 4 (all relative to capo 4)


Verse 1
---------------------------------------------
----------3------------3---------------------
-------0------------0------------------------
----4------------4---------------------------
-2------------2h3----------------------------
--------------------------------------------- (4x)
 You are all big and small...
 Beautiful
 ......


Pre-Chorus
-000---000---000---223-----------------------
-111---333---333---333-----------------------
-222---444---444---222-----------------------
-222---444---444---000-----------------------
-000---222---333---000-----------------------
-000---000---000---000-----------------------
 For dark is light to you....


Chorus
-333---333---333---223---333---333---2----3h2
-333---333---333---333---333---333---3---3---
-222---222---000---222---000---000---2-------
-000---000---222---000---222---222---0-------
-000---000---222---000---333---222---0-------
-333---222---000---000---000---000---0------- (2x)
 Be Near Oh......


Verse 2
---------------------------------------------
----------3------------3---------------------
-------0------------0------------------------
----4------------4---------------------------
-2------------2h3----------------------------
--------------------------------------------- (4x)
 Your Fullness
 ............


Radio edit (no capo)
Verse
G, Bm, G, Bm, G Bm, G
Pre-Chorus
Em, D/F#, G, A
Chorus
D, D/C#, D/B, A, G, D/F#, A

Comments about this tab

No comments/corrections found. Add your own

Complimentary Christian Ringtones
Dadamobile and CGR have teamed up to bring your favorite Christian artists right to your phone. Sign up today and get 10 complementary ringtones!
Tab Country
Did you know CGR has a sister site w/ country guitar tabs? Well we do! Its called Tab Country. It has a great archive with a lot of country tabs.
Rockin Tabs
Are you looking for a site that has rock guitar tabs? Then Rockintabs.com is the place for you. It is a budding site with many rock guitar tabs. Submit your tab today.
Tab Gallery
Tab Gallery has a compilation of christian, rock, and country tabs all in one place. Come visit us.