Guitar Tabs
song title    band name

Join Us Today!

Don't strum alone...
be a part of the largest online Christian music community. Browse thousands of guitar tabs and chat w/ musicians like yourself.


It's Free!

This tab has been rated a 4.46 out of 5 for accuracy. (24 votes)Sorry, but you must be logged in to rate this tab.
Click here to log-in, or you can click here to register.
(Registration is free)

All songs owned by corresponding publishing company. If you make copies of any song on this website, be sure to report your usage to CCLI.
Submitted by: jeff_a_10487

Thousand Foot Krutch
Phenominon


*** Drop D Tuning ***
The other tab had the basic idea, but it was pretty incomplete and I think
it's easier to play in drop d. suit yourself


Intro/Verse:
E-----------------------------------------------
B-----------------------------------------------
G-----------------------------------------------
D------------------------7--7--7--8----8--------
A--5--5--5--5----5----5--5--5--5--5----5----5---
D--5--5--5--5----5----5--5--5--5--5----5----5---

E-----------------------------------------------
B-----------------------------------------------
G-----------------------------------------------
D-----------------8----------------7----7-------
A-5/8--8--8--8----8----8--3--3--3--3----3----3--
D-5/8--8--8--8----8----8--3--3--3--3----3----3--

and then at the end of the last repitition (@ 'surround invasion')

E-----------------------------------------------
B-----------------------------------------------
G------------------------5----------------------
D--5--7--7--8----8----8-----8--7--8----8----8---
A--5--5--5--5----5----5--5--5--5--5----5----5---
D--5--5--5--5----5----5--5--5--5--5----5----5---
  
E-----------------------------------------------
B-----------------------------------------------
G-----------------------------------------------
D------------7----7-------3-----3-----3---------
A-5/8--8--8--8----8----8--3-----3-----3---------
D-5/8--8--8--8----8----8--3-----3-----3---------

Chorus:
E-----------------------------------------------
B-----------------------------------------------
G-----------------------------------------------
D-1-----------------1--1\0------------------0--0
A-1-----------------1--1\0------------------0--0
D-1-----------------1--1\0------------------0--0

E-----------------------------------------------
B-----------------------------------------------
G-----------------------------------------------
D-5--5--5--5--5--5--5--5--7--7--7--7--8--8--8--8
A-5--5--5--5--5--5--5--5--5--5--5--5--5--5--5--5
D-5--5--5--5--5--5--5--5--5--5--5--5--5--5--5--5


E-----------------------------------------------
B-----------------------------------------------
G-----------------------------------------------
D-5--5--5--5--5--5--5--5--7--7--7--7--8--8--8--8
A-5--5--5--5--5--5--5--5--5--5--5--5--5--5--5--5
D-5--5--5--5--5--5--5--5--5--5--5--5--5--5--5--5

E-----------------------------------------------
B-----------------------------------------------
G-------------------------3-----2h3~------------
D-8--8--8--8--10-10-10-10-1---------------1--1\0
A-8--8--8--8--10-10-10-10-1---------------1--1\0
D-8--8--8--8--10-10-10-10-1---------------1--1\0

I'll let you piece it together with the right number or repeats and what not

then Bridge (can't take it anymore):

E-----------------------------------------------
B-----------------------------------------------
G-----------------------------------------------
D-5--5--5--5--5--5--5--5--0--0--0--0--0--0--0--0
A-5--5--5--5--5--5--5--5--0--0--0--0--0--0--0--0
D-5--5--5--5--5--5--5--5--0--0--0--0--0--0--0--0

E-----------------------------------------------
B-----------------------------------------------
G-----------------------------------------------
D-8--8--8--8--8--8--8--8-10-10-10-10-10-10-10-10
A-8--8--8--8--8--8--8--8-10-10-10-10-10-10-10-10
D-8--8--8--8--8--8--8--8-10-10-10-10-10-10-10-10

I think that's it, sorry it's not too well organized, but those are all the 
chords you need, so you should be able to figure it out.




Comments about this tab

Relient_Kev - 2004-05-12

just played this tab...there's a few things you need to add, like the palm muting and stuff, but man....this tab blew me away O.O....good job, i give it a 5.


Sillwon - 2004-05-13

Hmm... this tab seems verry verrrrry familiar. OH! I KNOW WHY!

BECAUSE ITS MY ******* TAB YOU TAB STEALING *** * * *****. REPORTED.


Jake the Snake - 2004-05-13

That was inapropiate. This is a christian site. ACt LIKE ONE


B-rad - 2004-05-14

Exactly dude, and also you miss spelled PHENOMENON. DUDE


Sillwon2 - 2004-05-24

Ok fine, i sorta went overboard with the language and even got banned. But I bet you would get pretty pissed too to find your own work STOLEN. It's not very christian to steal stuff from others is it? (I wouldn't know, im not christian) Here's the original tab in its original form.

http://www.ultimate-guitar.com/tabs/t/thousand_foot_krutch/phenomenon_tab.htm
http://www.mxtabs.net/tab_versions.php?path=Guitar,t,1429,Thousand+Foot+Krutch,Phenomenon,130314
http://www.taborama.com/archive/tab.php?tid=36728&aid=1111&a=Thousand%20Foot%20Krutch&t=Phenomenon&i=1

Now either please change this tab to the original, or completely remove it. I don't like seeing my my work being plagiarized and I bet you wouldn't like it either.


Sillwon2 - 2004-05-24

Oh, and DUDE. I didn't spell phenomenon wrong. HE did. he took out all of my comments. grrr


Monstereye - 2004-05-24

Okay I think the Tab needs a little correction.
I suppose the Intro/Verse like this

E-----------------------------------------------
B-----------------------------------------------
G-----------------------------------------------
D------------------------7--7--7--9----9--------
A--5--5--5--5----5----5--5--5--5--5----5----5---
D--5--5--5--5----5----5--5--5--5--5----5----5---

I think that sounds better ...
And its not in Drop D its in "real" D - tuning
Because its not one half tone deeper its a complete tone deeper
if you want to play drop D you have to play this

E-----------------------------------------------
B-----------------------------------------------
G-----------------------------------------------
D------------------------6--6--6--8----8--------
A--4--4--4--4----4----4--4--4--4--4----4----4---
D--4--4--4--4----4----4--4--4--4--4----4----4---

And to Mr. Sillwon. How you now its your Tab. Other people can write a tab likewise and have a good hearing.
So if you speak of stealing you may furnish proves...
Thats all...
much fun with your guitars
Monstereye


Sillwon2 - 2004-05-24

Actually, there is proof in my 2nd post. Those 3 urls are my tabs, and he ripped them from my tabs. They were copied and pasted. It's exactly like mine but he just took out all my comments. That's all


Monstereye - 2004-05-25

@ Sillwon2:
Mhh ok ...
But what if he has heared it out himself ??
You can't know it exactly ...
But enough of this ...
Whats with my correction ??
Do you think it fits ???
By Monstereye


linuxpenguin - 2004-06-05

Dude, the tab looks great, when I listened to the song, I didn't pick up on the high D string change. But you missed something else in the intro...



Intro/Verse:
E----------------------------------------------------
B----------------------------------------------------
G----------------------------------------------------
D--------------------------7--7--7--9--9-------------
A--5--5--5--5--5--5--5--5--5--5--5--5--5----5----5---
D--5--5--5--5--5--5--5--5--5--5--5--5--5----5----5---

E------------------------!------------------------
B-------------------------------------------------
G-------------------------------------------------
D------------------------------------7--7---------
A-5/8--8--8--8--8--8--8--0--3--3--3--3--3--3--3---
D-5/8--8--8--8--8--8--8--0--3--3--3--3--3--3--3---

sometimes... (like the second time)

Intro/Verse:
E-----------------!--!--!----------------------------
B----------------------------------------------------
G----------------------------------------------------
D--------------------------7--7--7--9--9-------------
A--5--5--5--5--5--0--3--0--5--5--5--5--5----5----5---
D--5--5--5--5--5--0--3--0--5--5--5--5--5----5----5---

E------------------------!------------------------
B-------------------------------------------------
G-------------------------------------------------
D------------------------------------7--7---------
A-5/8--8--8--8--8--8--8--0--3--3--3--3--3--3--3---
D-5/8--8--8--8--8--8--8--0--3--3--3--3--3--3--3---


Also, The tab is corrrect on the chorus (cause I saw him play it in concert)
but I like to play it like...

Chorus:
E-----------------------------------------------
B-----------------------------------------------
G-----------------------------------------------
D-1--------*---*----*--0------------*--*--*-----
A-1--------*---*----*--0------------*--*--*-----
D-1--------*---*----*--0------------*--*--*-----

E----------------------------------------------
B----------------------------------------------
G----------------------------2--2--2--3--3--3--
D-5--5--5--5--5--5--5--5--5--5--5--5--5--5--5--
A-5--5--5--5--5--5--5--5--5--5--5--5--5--5--5--
D-5--5--5--5--5--5--5--5--5--5--5--5--5--5--5--


Well, you get the idea


joellaw44 - 2004-06-19

The only correction on the tab I would make is that on the both verses there is a second guitar playing on the high d string.
D- 10-8-7-8-10-8-7-8-8-7-5-7-10-8-7-8
You prob. can't hear it very well, so its no big deal but it sounds awesome. Your tab is almost the same as what I came up with, so I would say it's very accurate.


gsusfreke - 2004-07-20

on the bridge, i'm pretty sure it is

d-5---7---8---10
a-5---7---8---10
D-5---7---8---10

instead of 5 to 0

not sure just a guess


gsusfreke - 2004-07-20

and monstereye:

it is

5-7 8
5-5 to 5
5-5 5

no to 9

i understand why you thought that too!


switchfootkrutc - 2004-07-28

oh while the bridge also there is another guitar part it plays it on the e-string it like goes something like this

E-------12-10-15-17-15------} or something like that i dunno


guitar99dude77 - 2004-08-05

I love this song


Demon_Hunter - 2004-08-18

hey, i love this tab. im not a very good player, but when i played this tab it sounded pretty close to the song. also thanx yall for posting those corects, thats gonna make it a whole lot easier to sound better.

also, i check silwon's sites out, this tab is exactly the same as on other sites. i believe this is a case of plagarism. infact this tab make smore sense on the other sites cause it has little commentaries explaining different parts of it. so all those links he posted, i believe those would be a better spot for reading this tab


Demon_Hunter - 2004-08-18

regarding the the drop-d tuning of this song

i found it sounded alot better if it was tuned d-flat instead of just d. if u tune to d all the notes you play will be sharped, an they sound kinda off. if tuned to d-flat they will just the right intonation, an wont sound so off.


krutchfan66 - 2004-11-21

How do u tune it 2 drop d and d flat and stuff???


mmggppmgp - 2004-12-23

i like it... the tab stealin is not nice and not very Christian like, and a really...really...really...really...really...(u get the point) really... bad witness to the non-Christians... anyway God bless people


sportsboi - 2004-12-28

to tune it to drop d just play the high d and then immediately after play the low 'e' then use your ear to make the low 'e' sound like the high d. sry don't know d flat tuning...i cud use a little help on that 2.


whatiscool? - 2004-12-29

do u guys have chromatic tuners??? besides that, i dont know how to do the whole Db thing.


Emery37 - 2005-01-07

what about the first part of the song. shouldnt it be palm muted?


hawknelson28 - 2005-01-15

ok heres what i think it is i might be worng 5-5-5-5-5-5-5-5-8-8-8-3-3-3-3-3-3-3-3-| 5-5-5-5-5-5-5-5-8-8-8-3-3-3-3-3-3-3-3-|palm muted. this is what i think i dont know its my frist tab so go easy on me haha god bless


hawknelson28 - 2005-01-15

D-5-5-5-5-5-5-5-5-8-8-8-8-3-3-3-3-3-3-3-3
A-5-5-5-5-5-5-5-5-8-8-8-8-3-3-3-3-3-3-3-3
D----------------------------------------palm muted.sorry i messed up the frist one.


UrMyOnlyDesire7 - 2005-01-17

Oh and if you paid attention its not the same.....he didn't steal this tab he just can hear music


rock4christ08 - 2005-01-17

man, there's too much drama for yo mamma in these tab comment conversations, i mean, there should be a new soap opera or something, the Phenomenon of Our Lives. "you stole my tab!" "well, you stole from my kin", well "you stole my story!" by the way, that one dude's right, it's not very christian like, so behave children, or i'll spank you with a guitar. - averyconcernedcitizen :)


Christianrock08 - 2005-01-17

lmbo haha good one ray


rock4christ08 - 2005-01-17

heehee......good one jt


hawknelson28 - 2005-01-29

opps sorry i just checked it again and its subpost to be like this.

Intro:
E|------------------------|
B|------------------------|
G|------------------------|
D|------------------------|
A|-55555-55555-88888-33333|
D|-55555-55555-88888-33333|Plum Mute:


SSj Guitarist - 2005-07-19

Holy comments batman!
Ya, I learned this song off what's his faces sites, and it's pretty much perfect. Other than there is no 2nd guitar done for the 'solo' thing in the bridge...least not if memory serves correct..it's been awhile....anyhoo, that's all I have to say, goodbye

SSj


TFKmaniac92 - 2005-07-22

would everyone shut up!? i've talked to satanists who arent as bad as u guyz chill and act christian on a CHRISTIAN WEBSITE! god bless ever body



BCK


freewilly - 2005-09-02

you guys are all nuts come over sometime and i'll teach how to talk nice and propper like aight dog


TFK-FrEak - 2005-09-10

hey guy.. just would like to say intersting conversation..... nothing else
God bless!


Pierre_thegreat - 2005-10-02

why cant you guys learn to play proper power chords in standard tuning. drop d is for noobs


Pierre_thegreat - 2005-10-02

im apologise for that last comment


ChurchPunk 2 - 2005-10-21

Because its the only way to hit the open and 1st fret chords. Oh and I saw Jamie play the real intro. Here it really is...in Drop-D, nothing less.
And just make the powerchords, I am only going to put the top string, but you should get it. Any questions emial me at Churchpunk@fuse.net.

-5555-5505555-550-8888-880-3333-330-(Repeat)
Thats the real one. Hit the open chords. Trust me, that is perfect.


tfk_rox - 2005-11-09

WOW! I bet this is the most dramatic and long conversation in the whole website. and I mean whats with the noobs and Shut Up comments, I mean you guys should grow up. You are supposed to make wise decisions if your christian. I mean seriously. Could you guys stop fighting and be mature about this thing. Thanks.

oh and I didn't mean to offend anyone by these comments. I was just trying to say stop fighting overall.
Thanks


thefish_8me - 2006-01-16

yeah, its shocking, the comments take up just about three times the room of the tab! and good work TFK_rox for that great comment, it seems to have calmed everyone down


josh777 - 2006-03-28

Hey im the lead guitarist 4 the band and i heard this big arguement over this stupid tab and comment section. First of its played in drop d the dude that said drop d is for noobs and figure out real power chords well great guitarist's make it easy on themselves so if u wanna argue come to one of my concerts(im famous) and then we can talk about how i play if you dont like it dont buy the cd. and i would give u the real notes but yall prolly start agueing again so peace ttyl8er
LOSERS U GUYSCANT PLAY THE GUITAR!!!!!!!!!GET ON MY LEVEL


josh777 - 2006-03-28

Hey free willy how about u grow a willy then well talk u momas boy!!!


Dani_Boy - 2006-04-05

CHILL OUT!!! Fun/Weird/Bad conversation you all had there. This song has two guitars, just like all the other TFK songs in Phenomenon. The tab's missing out a couple of details here and there.


guitarcordfreak - 2006-04-05

if Josh777 is really the guitar player then I don't really like TFK as much as I did before I read his comments cuz that was a pretty rude thing to say. so please don't do that again it's very rude. thanx


Dani_Boy - 2006-04-08

I DON'T think Josh777 is the Lead Guitarist, he can't be. All the TFK songs aren't all that deep I guess, but they've got a good message and I think they are a good christian band. Josh777 can't be the Lead Guitarist, he mustn't be. Look at his second comment for goodness sake! That is really far from the spirit of christianity and the spirit of the band to me. I think Josh777 WISHES he was the Lead Guitarist, but he sure doesn't act proffessional.

If Josh777 is the Lead Guitarist I suggest he sends in a few tabs himself, including the Lead Guitar. A song with a hard Lead Guitar like Hand Granade on The Art of Breaking album whould do fine. Nobody's got that one right yet.

I still love TFK. I think Josh777 is an overproud liar and I don't believe him. If he was the Lead Guitarist it would be quite stupid of him to say such things and drag TFK in the dirt. I still love TFK and it will take more than someone like Josh777 to make me stop loving them. TFK ROCKS!!!


guitarcordfreak - 2006-04-19

YES!!!!!! thank you Dani_boy for agreeing with me about josh777 infact I wrote a review on a skillet tab(I can't remember whitch song) but he was saying that he was john cooper of skillet and so I wrote a review and told him off. it's nice to know that someone out there has also learned the truth about josh777!!!


akaukal - 2006-05-01

josh777, watch what your saying. I've actually met the lead guitarist at the end of a concert. He's a nice guy. You're not being one. Therefore logic suggests that you are not the lead guitarist.


underoathrocks - 2006-06-27

Good tab, I think it's in Db.

Seriously almost everybody uses the same layout and if he listen's to the song he will probably get the same thing as you.

In regards to Josh777, pull yourself together!(from In Regards to Myself by Underoath in Define The Great Line) if TFK saw all this contraversy then they'd probably first be honored that they have so many fans that try to play their songs and second try to calm you down not try to make things worse like josh777 did, what a poser.

5 stars for the effort.
4 stars for the tab
0 stars for the contraversy
-Flip


spyrotheleo - 2006-08-18

So if everyone transposed the music and got it correctly who would be the one who would get the credit? ITs music, listen to it and figure it out. IF everyone does it right they should come out the same.


josh777 - 2007-10-25

yeah sorry underoath and all I was in the wrong but I am right minus the trash talk and I apologize again and you can check the new Hand Grenade Tab under the name of first tab ever and I have a 4.75 but since i wrote the song I guess I wrote it wrong because it should be a 5 and the solo isn't on there because It's a simple run up and down the high E and B strings in the Key of Am


go4broke28 - 2008-10-17

Great tab man. I kinda like it to be 5-0-8-10 on the D-A-D strings, about four strums on the 5's, four strums on the 0's, four strums on the 8's (while on the 4th strum, slide up to 10th fret), and finally four strums on the 10's. Try it out for yourself, but I kinda like it like that. God's peace on us all!
GuitarHero


xyumboyak17x - 2011-02-14

Im glad the father showed me this site i was spending hours trying to find tabs for thousand foot krutch and skillet and it has every christian band i listen to


Add a comment/correction

Complimentary Christian Ringtones
Dadamobile and CGR have teamed up to bring your favorite Christian artists right to your phone. Sign up today and get 10 complementary ringtones!
Tab Country
Did you know CGR has a sister site w/ country guitar tabs? Well we do! Its called Tab Country. It has a great archive with a lot of country tabs.
Rockin Tabs
Are you looking for a site that has rock guitar tabs? Then Rockintabs.com is the place for you. It is a budding site with many rock guitar tabs. Submit your tab today.
Tab Gallery
Tab Gallery has a compilation of christian, rock, and country tabs all in one place. Come visit us.