Guitar Tabs
song title    band name

Join Us Today!

Don't strum alone...
be a part of the largest online Christian music community. Browse thousands of guitar tabs and chat w/ musicians like yourself.


It's Free!

This tab has been rated a 1.67 out of 5 for accuracy. (3 votes)Sorry, but you must be logged in to rate this tab.
Click here to log-in, or you can click here to register.
(Registration is free)

All songs owned by corresponding publishing company. If you make copies of any song on this website, be sure to report your usage to CCLI.
Submitted by: 39lashes

artist: pillar
Song: Further From Myself
flicker records
album: fireproof

this song is already on the website but it is a little off.
this is right, i think.

intro:
e[---------------------------------------------------------]
B[---------------------------------------------------------]
G[---------------------------------------------------------]
D[----9-11-11-11p12-------9-9-9-11----9-11-11-11p12---11---]
A[--9-------------------9-----------9-----------------9----]
E[--0-----------------0-------------0-----------------0----]

verse:
e[----------------------------]
B[----------------------------]
G[----------------------------]
D[---7-7-7-7-7-9-9-9-9-9------]
A[---7-7-7-7-7-9-9-9-9-9------]
E[---0-0-0-0-0-0-0-0-0-0------]

little part in verse:
e[------------------------------------------------------------------------]
B[------------------------------------------------------------------------]
G[---------------11-----------------11----------------11------------------]
D[-------9-11-12----12------9-11-12---12------9-11-12----12------9-11-12--]
A[-----9------------------9-----------------9------------------9----------]
E[---7------------------7-----------------7------------------7------------]

then it goes back to regular verse

2nd little part is done twice

chorus:
e[--------------------------]
B[--------------------------]
G[--------------------------]
D[9-7-5-9-7-5-9-7-5-4-4-5---]
A[9-7-5-9-7-5-9-7-5-4-4-5---]
E[7-5-3-7-5-3-7-5-3-2-2-3---]
play that a few times

bridge is just the verse riff
questions/correcions
charliemot9@aol.com

Comments about this tab

ChurchPunk 2 - 2005-01-22

Hey, its not really right at all. I am not criticising; I have the song book, though, and its alot hareder. Sorry.


ChurchPunk 2 - 2005-02-14

Its also played in drop-d tuning.


jesus_freak1589 - 2005-04-26

churchpunk why dont you put up the song so we can play it the right way???


jesus_freak1589 - 2005-04-29

why not?? put it up i want to play this song at my youth group. please Put up the right way


Basshammer2000 - 2005-10-01

2 wrongs don't make a right, have you heard that guys don't attack him right back, show some love like christ would


Livin4TheOne23 - 2006-01-11

I agree with BassHammer. Be nice, its what He would want.


Add a comment/correction

Complimentary Christian Ringtones
Dadamobile and CGR have teamed up to bring your favorite Christian artists right to your phone. Sign up today and get 10 complementary ringtones!
Tab Country
Did you know CGR has a sister site w/ country guitar tabs? Well we do! Its called Tab Country. It has a great archive with a lot of country tabs.
Rockin Tabs
Are you looking for a site that has rock guitar tabs? Then Rockintabs.com is the place for you. It is a budding site with many rock guitar tabs. Submit your tab today.
Tab Gallery
Tab Gallery has a compilation of christian, rock, and country tabs all in one place. Come visit us.