Guitar Tabs
song title    band name

Join Us Today!

Don't strum alone...
be a part of the largest online Christian music community. Browse thousands of guitar tabs and chat w/ musicians like yourself.


It's Free!

This tab has been rated a 5.00 out of 5 for accuracy. (1 vote)Sorry, but you must be logged in to rate this tab.
Click here to log-in, or you can click here to register.
(Registration is free)

All songs owned by corresponding publishing company. If you make copies of any song on this website, be sure to report your usage to CCLI.
Submitted by: slashram

Stay the Same - Seven Places

tabbed by: slashram

well i haven't seen this song and...........i tabbed it

Standard tuning
GT1=guitar 1
GT2=guitar 2

Intro

GT1 e|-------------------|    
    b|-------------------|    
    g|-------4-4-4-------|    
    d|-5-5-5-4-4-4-4-4-4-| x4 
    a|-5-5-5-2-2-2-4-4-4-|    
    e|-3-3-3-------2-2-2-|    
 
GT2 e|---------------------------------|
    b|---------------------------------|
    g|---------------------------------|
    d|-12-12-12-12-11-11-11-11-7-7-7-7-| come in 2nd time of GT1
    a|---------------------------------|
    e|---------------------------------|
 
    e|---------------------------------|
    b|---------------------------------|
    g|---------------------------------|
    d|-7-7-7-7-12-12-12-12-11-11-11-11-|
    a|---------------------------------|
    e|---------------------------------|
 
    e|---------------------------------|
    b|---------------------------------|
    g|---------------------------------|
    d|-7-7-7-7-12-12-12-12-14-14-14-14-|
    a|---------------------------------|
    e|---------------------------------|
 
Verse 1

GT1 e|-------------------|
    b|-------------------|
    g|-------------------|
    d|-5-5---------------| x4
    a|-5-5---------------|
    e|-3-3---------------|
       X X

GT2 e|----------------------------|
    b|----------------------------|
    g|----------------------------|
    d|-12-12-12-12-12-12-11-11-11-| x3 then
    a|----------------------------|
    e|----------------------------|
 
    e|----------------------------|
    b|----------------------------|
    g|----------------------------|
    d|-12-12-12-12-12-12-12-12-12-|
    a|----------------------------|
    e|----------------------------|
 
GT1 e|-------------------|
    b|-------------------|
    g|-------4-4-4-------|
    d|-5-5-5-4-4-4-4-4-4-| x4
    a|-5-5-5-2-2-2-4-4-4-|
    e|-3-3-3-------2-2-2-|
       X X X X X X X X X

GT2 e|----------------------------|
    b|----------------------------|
    g|----------------------------|
    d|-12-12-12-12-12-12-11-11-11-| x3 then
    a|----------------------------|
    e|----------------------------|
 
    e|----------------------------|
    b|----------------------------|
    g|----------------------------|
    d|-12-12-12-12-12-12-12-12-12-|
    a|----------------------------|
    e|----------------------------|

GT1 e|-----------------|
    b|-----------------|
    g|-----------------|
    d|-5-5-5-5-5-5-5-5-|
    a|-5-5-5-5-5-5-5-5-|
    e|-3-3-3-3-3-3-3-3-|
       X X X X

Chorus

GT1 e|-------------------|
    b|-------------------|
    g|-7-----------------|
    d|-7-7-4-4-4-4-4-4-4-|
    a|-5-7-4-4-4-4-4-4-4-|
    e|---5-2-2-2-2-2-2-2-|
 
GT2 e|-------------------|
    b|-------------------|
    g|-7-----------------|
    d|-7-7/9-5-5/4-4/5-5-|
    a|-5-7/9-5-5/4-4/5-5-|
    e|---5/7-3-3/2-2/3-3-|

GT1 e|-------------------|
    b|-------------------|
    g|-------7-7-7-------|
    d|-5-5-5-7-7-7-7-7-7-|
    a|-5-5-5-5-5-5-7-7-7-|
    e|-3-3-3-------5-5-5-|
  
GT2 e|-------------------|
    b|-------------------|
    g|-------7-7-7---7/4-|
    d|-5-5-5-7-7-7-7-7/4-|
    a|-5-5-5-5-5-5-7-5/2-|
    e|-3-3-3-------5-----|
  
GT1 e|---------------------------|
    b|---------------------------|
    g|-------4-4-4-------7-7/6-6-|
    d|-5-5-5-4-4-4-7-7-7-7-7/6-6-|
    a|-5-5-5-2-2-2-7-7-7-5-5/4-4-|
    e|-3-3-3-------5-5-5---------|
  
GT2 e|---------------------------|
    b|---------------------------|
    g|-------4-4-4-------7-7/9-9-|
    d|-5-5-5-4-4-4-7-7-7-7-7/9-9-|
    a|-5-5-5-2-2-2-7-7-7-5-5/7-7-|
    e|-3-3-3-------5-5-5---------|
  
GT1 e|-------------------|
    b|-------------------|
    g|-7-7-7-7-7-7-------|
    d|-7-7-7-7-7-7-7-7-7-|
    a|-5-5-5-5-5-5-7-7-7-|
    e|-------------5-5-5-|
    
GT2 e|-------------------|
    b|-------------------|
    g|-7-7-7-7-7-7---7-4-|
    d|-7-7-7-7-7-7-7-7-4-|
    a|-5-5-5-5-5-5-7-5-2-|
    e|-------------5-----|
    
GT1 e|-------------------|
    b|-------------------|
    g|-----4-4-----------|
    d|-7-7-4-4-7-7-7-4-4-|
    a|-7-7-2-2-7-7-7-4-4-|
    e|-5-5-----5-5-5-2-2-|
  
GT2 e|-------------------|
    b|-------------------|
    g|-----4-4-----------|
    d|-7-7-4-4-7-7-7-4-4-|
    a|-7-7-2-2-7-7-7-4-4-|
    e|-5-5-----5-5-5-2-2-|
  
Verse 2
 
GT1 e|-------------------|
    b|-------------------|
    g|-------4-4-4-------|
    d|-5-5-5-4-4-4-4-4-4-| x4
    a|-5-5-5-2-2-2-4-4-4-|
    e|-3-3-3-------2-2-2-|
       X X X X X X X X X

GT2 e|----------------------------|
    b|----------------------------|
    g|----------------------------|
    d|-12-12-12-12-12-12-11-11-11-| x3 then
    a|----------------------------|
    e|----------------------------|
 
    e|----------------------------|
    b|----------------------------|
    g|----------------------------|
    d|-12-12-12-12-12-12-12-12-12-|
    a|----------------------------|
    e|----------------------------|

GT1 e|-----------------|
    b|-----------------|
    g|-----------------|
    d|-5-5-5-5-5-5-5-5-|
    a|-5-5-5-5-5-5-5-5-|
    e|-3-3-3-3-3-3-3-3-|
       X X X X

Chorus again

Bridge thingy doo

GT1 e|------------------------|
    b|------------------------|
    g|-7-7--7-7--7-7--7-7-7-7-|
    d|-7-7--7-7--7-7--7-7-7-7-| x4
    a|-5-5--5-5--5-5--5-5-5-5-|
    e|------------------------|
 
GT2 e|------------------------|
    b|------------------------|
    g|-7-7--------------------|
    d|-7-7--7-7--4-4--5-5-5-5-| x4
    a|-5-5--7-7--4-4--5-5-5-5-|
    e|------5-5--2-2--3-3-3-3-|
 
GT2 e|-2-2-2-2-0-0-0-0-3-3-3-3-0-0-0-0-|
    b|---------------------------------|
    g|---------------------------------|
    d|---------------------------------| x2 (guitar 1 does nothing)
    a|---------------------------------|
    e|---------------------------------|
 
GT1 e|---------------------------------|
    b|---------------------------------|
    g|-7-7-7-7-------------------------|
    d|-7-7-7-7-4-4-4-4-5-5-5-5-4-4-4-4-| x2
    a|-5-5-5-5-4-4-4-4-5-5-5-5-4-4-4-4-|
    e|---------2-2-2-2-3-3-3-3-2-2-2-2-|
 
GT2 e|-2-2-2-2-0-0-0-0-3-3-3-3-0-0-0-0-|         e|3-3-3-3-3-3-|
    b|---------------------------------|         b|------------|
    g|---------------------------------|         g|------------| Over and over
    d|---------------------------------| x2 then d|------------| really really
    a|---------------------------------|         a|------------| REALLY very
    e|---------------------------------|         e|------------|     FAST
 
Chorus then

GT1 e|---------------------------------|         e|------|
 &  b|---------------------------------|         b|------|
GT2 g|---------4-4-4-4-----------------|         g|------|
    d|-5-5-5-5-4-4-4-4-7-7-7-7-4-4-4-4-| x2 then d|-5--5-|
    a|-5-5-5-5-2-2-2-2-7-7-7-7-4-4-4-4-|         a|-5--5-|
    e|-3-3-3-3---------5-5-5-5-2-2-2-2-|         e|-3--3-|
 
and that's it

feel free to do the correcting thing they got here
'cause some parts are probably wrong, but that's just the way i play it

Comments about this tab

sanctusfan14 - 2004-11-04

a minor thing, where it goes
e-x
b-x
g-------4-4-4------
d-5-5-5-4-4-4-4-4-4
a-5-5-5-2-2-2-4-4-4
e-3-3-3-------2-2-2 which happens a lot in the song, ur supposed
to play the G5(first power chord) 6 times, not 3


ForgivenPilgrim - 2005-05-25

Can somebody pleeaase tab or put the chords to Seven Places' "Watch" song off of the Hear us Say Jesus cd? I love that song, but I'm not very good at figuring songs out yet...


Add a comment/correction

Complimentary Christian Ringtones
Dadamobile and CGR have teamed up to bring your favorite Christian artists right to your phone. Sign up today and get 10 complementary ringtones!
Tab Country
Did you know CGR has a sister site w/ country guitar tabs? Well we do! Its called Tab Country. It has a great archive with a lot of country tabs.
Rockin Tabs
Are you looking for a site that has rock guitar tabs? Then Rockintabs.com is the place for you. It is a budding site with many rock guitar tabs. Submit your tab today.
Tab Gallery
Tab Gallery has a compilation of christian, rock, and country tabs all in one place. Come visit us.