Guitar Tabs
song title    band name

Join Us Today!

Don't strum alone...
be a part of the largest online Christian music community. Browse thousands of guitar tabs and chat w/ musicians like yourself.


It's Free!

This tab has been rated a 3.67 out of 5 for accuracy. (6 votes)Sorry, but you must be logged in to rate this tab.
Click here to log-in, or you can click here to register.
(Registration is free)

All songs owned by corresponding publishing company. If you make copies of any song on this website, be sure to report your usage to CCLI.
Submitted by: BassP86

Song: Pitiful
Artist: Blindside
Album: Silence
Submitted by: BassP86

People, people, people, you're all going about it all wrong. This is the
right way of playing "Pitiful." I hope it at least gives you an idea. Tuning
is down a half-step. Enjoy!

Intro/Chorus:
eb|--------------------------------------------------------------------------|
Bb|--------------------------------------------------------------------------|
Gb|-9--9/7\12--12/7\9--9/7\12-----------9--9/7\12--12/7\9--9/7\12------------|
Db|-x--x-x--x---x-x-x--x-x--x-----------x--x-x--x---x-x-x--x-x--x--------2~~-|
Ab|-7--7/5\10--10/5\7--7/5\10-----------7--7/5\10--10/5\7--7/5\10--------2~~-|
Eb|----------------------------0h3p0-0-----------------------------0h3p0-0~~-|

Verse:
eb|----------------------------------|
Bb|-----------------8-8-8-7-7-7-7-7/-|
Gb|-7h9-9-9-9-9-9-9------------------|
Db|----------------------------------|
Ab|----------------------------------|
Eb|----------------------------------|
p.m..................................

Bridge:
eb|-----------------------------------------------------------------|
Bb|-----------------------------------------------------------------|
Gb|-----------------------------------------------------------------|
Db|-2-2-2-2-2-2-2-2-4-4-4-4-4-4-4-4-5-5-5-5-5-5-5-5-4-4-4-4-4-4-4-4-|
Ab|-2-2-2-2-2-2-2-2-4-4-4-4-4-4-4-4-5-5-5-5-5-5-5-5-4-4-4-4-4-4-4-4-|
Eb|-0-0-0-0-0-0-0-0-2-2-2-2-2-2-2-2-3-3-3-3-3-3-3-3-2-2-2-2-2-2-2-2-|

Solo Part 1:
eb|----------------|
Bb|-8--8p7\12--12/-|
Gb|----------------|
Db|----------------|
Ab|----------------|
Eb|----------------|

Solo Part 2:
eb|-------------14-----|
Bb|-8p7--8p7\12----12/-|
Gb|--------------------|
Db|--------------------|
Ab|--------------------|
Eb|--------------------|

Sorry, I don't know the ending, but you can get it from another tab that is
on www.mxtabs.com. You can figure out how many times each riff goes. Good luck!

Comments about this tab

sXcountry - 2005-09-12

it's in uh, Drop D, so the power chords are all the same fret in the bridge.
2-4
2-4
2-4 etc.


neal's_beard - 2006-04-23

This tab is correct to nearly 100%. The tuning is right!


akaukal - 2006-05-09

no it's not in drop d, it's in drop c#.


pillarfan23 - 2006-05-23

Make up your minds!!!!!


akaukal - 2006-05-25

Intro/Chorus:
eb-------------------------------
bb-------------------------------
gb-9-9\7/12-12\7-9-9\7-12--------
Db-x-x-x-x--x--x-x-x-x-x--0-2-0--
Ab-7-7\5/10-10\5-7-7\5/10-0-2-0--
Db------------------------0-2-0--

Listen to the song as you play this. Notice the 0 chords. That is why it has to be played in Drop C#(Db). I will submit the whole tab soon.


Add a comment/correction

Complimentary Christian Ringtones
Dadamobile and CGR have teamed up to bring your favorite Christian artists right to your phone. Sign up today and get 10 complementary ringtones!
Tab Country
Did you know CGR has a sister site w/ country guitar tabs? Well we do! Its called Tab Country. It has a great archive with a lot of country tabs.
Rockin Tabs
Are you looking for a site that has rock guitar tabs? Then Rockintabs.com is the place for you. It is a budding site with many rock guitar tabs. Submit your tab today.
Tab Gallery
Tab Gallery has a compilation of christian, rock, and country tabs all in one place. Come visit us.