Guitar Tabs
song title    band name

Join Us Today!

Don't strum alone...
be a part of the largest online Christian music community. Browse thousands of guitar tabs and chat w/ musicians like yourself.


It's Free!

This tab has been rated a 5.00 out of 5 for accuracy. (1 vote)Sorry, but you must be logged in to rate this tab.
Click here to log-in, or you can click here to register.
(Registration is free)

All songs owned by corresponding publishing company. If you make copies of any song on this website, be sure to report your usage to CCLI.
Submitted by: SlickMike

Title     : Welcome Home
Artist    : The O.C. Supertones
Album     : Hi-Fi Revival
Tabbed by : Mike Dominice
Email     : Mikethesupertone@cox.net

Standard Tuning

Key of D Major
Solo in either D Major Pentatonic or B Minor Pentatonic
======================
Intro Riff
   D                 D/B                Em7                 A
e[-----------------|------------------|-------------------|-----------------]
B[-7-7-8-7-7-7-8-7-|-7-7-8-7-7-7-8-10-|-8-8-10-8-8-8-10-8-|-5-5-7-8-5-5-7-8-]
G[-7-7-7-7-7-7-7-7-|-7-7-7-7-7-7-7-7--|-7-7-7--7-7-7-7--7-|-6-6-6-6-6-6-6-6-]
D[-7-7-7-7-7-7-7-7-|-7-7-7-7-7-7-7-7--|-9-9-9--9-9-9-9--9-|-7-7-7-7-7-7-7-7-]
A[-----------------|------------------|-------------------|-----------------]
E[-----------------|------------------|-------------------|-----------------] 
   1 + 2 + 3 + 4 +   1 + 2 + 3 + 4 +    1 + 2  + 3 + 4  +   1 + 2 + 3 + 4 +
======================
Verse
Gtr. 1
   D   G   C    G
e[-----------------]
B[-7-7-3-3-5-5-x3-3]
G[-7-7-4-4-5-5-x4-4]
D[-7-7-5-5-5-5-x5-5]
A[-----------------]
E[-----------------]

Gtr. 2 (repeat this high octave part...just listen for the rhythm)
e[-----------------]
B[--15-------------]
G[--x--------------]
D[--12-------------]
A[-----------------]
E[-----------------]
======================
Chorus
  D    G   C   G
e[-----------------]
B[-----------------]
G[-7-7-----5-5-----]
D[-7-7-5-5-5-5-5-5-]
A[-5-5-5-5-3-3-5-5-]
E[ ----3-3-----3-3-]
   
   1 + 2 + 3 + 4 + 
======================
Intro  X 1
Verse  X 8
Intro  X 1
Chorus X 4
Verse  X 4
Verse (Gtr. 2 only) x 4
Intro  X 1
Chorus X 8
Intro (Chords Only)
Chorus (Palm Muted) X 4
Chorus X 8
End on D

There's little minor pentatonic stuff going on during the chords only intro...
like this:
e[------------------]
B[------------------]
G[-9b11-9-7-7vv-----] 
D[------------------]
A[------------------]
E[------------------]

That's the song pretty much....the Gtr.2 verse part is used alot throughout
the song...just listen for it.

God Bless...Supertones Rock

Mike D

Comments about this tab

No comments/corrections found. Add your own

Complimentary Christian Ringtones
Dadamobile and CGR have teamed up to bring your favorite Christian artists right to your phone. Sign up today and get 10 complementary ringtones!
Tab Country
Did you know CGR has a sister site w/ country guitar tabs? Well we do! Its called Tab Country. It has a great archive with a lot of country tabs.
Rockin Tabs
Are you looking for a site that has rock guitar tabs? Then Rockintabs.com is the place for you. It is a budding site with many rock guitar tabs. Submit your tab today.
Tab Gallery
Tab Gallery has a compilation of christian, rock, and country tabs all in one place. Come visit us.