Guitar Tabs
song title    band name

Join Us Today!

Don't strum alone...
be a part of the largest online Christian music community. Browse thousands of guitar tabs and chat w/ musicians like yourself.


It's Free!

This tab has been rated a 3.50 out of 5 for accuracy. (2 votes)Sorry, but you must be logged in to rate this tab.
Click here to log-in, or you can click here to register.
(Registration is free)

All songs owned by corresponding publishing company. If you make copies of any song on this website, be sure to report your usage to CCLI.
Submitted by: someone13

I thought this was a little more accurate than the others on the sight.
 
 

|--------------------------------------------------------|
|------------------------------------11b13r-10-10-10\----|
|-----------------11b13r--10-10-10-----------------------|
|--5-5-5\------------------------------------------------|
|---------4-4-4-4----------------------------------------|
|--------------------------------------------------------|


b=bend 
r=release
\=slide down
(bend the notes by bending the strings sideways , I put this note 
here for those that don't know this cause it took me a while :)

Comments about this tab

peacemaker1-800 - 2004-07-29

hey dude its completly correct Execpt the ending ok u go through the 555 4444...AND THEN it goes b/7 all the way and pull back then go to 10 bend it too and pull it back i think that pretty corect but if not hey i tried God Bless, EmJ


guitarjockey - 2005-05-15

hey, im new to guitar and i don't get what you mean in the last part. could you explain it for me? thanks
kuluina


Dark Tofu - 2005-06-28

I believe the correct solo is

Guitar Solo (Kapo 1st fret)
E-----------------------9-----15-----------
B-2-----2------2----------888----14-14-14-0 3x
G-4b6---4b6----4b6-0000-------------------0

E----------------------9-----15-15-15-15-15b
B-2-----2-----2----------888----14-14-14----
G-4b6---4b6---4b6-0000----------------------


Add a comment/correction

Complimentary Christian Ringtones
Dadamobile and CGR have teamed up to bring your favorite Christian artists right to your phone. Sign up today and get 10 complementary ringtones!
Tab Country
Did you know CGR has a sister site w/ country guitar tabs? Well we do! Its called Tab Country. It has a great archive with a lot of country tabs.
Rockin Tabs
Are you looking for a site that has rock guitar tabs? Then Rockintabs.com is the place for you. It is a budding site with many rock guitar tabs. Submit your tab today.
Tab Gallery
Tab Gallery has a compilation of christian, rock, and country tabs all in one place. Come visit us.