Guitar Tabs
song title    band name

Join Us Today!

Don't strum alone...
be a part of the largest online Christian music community. Browse thousands of guitar tabs and chat w/ musicians like yourself.


It's Free!

This tab has been rated a 5.00 out of 5 for accuracy. (3 votes)Sorry, but you must be logged in to rate this tab.
Click here to log-in, or you can click here to register.
(Registration is free)

All songs owned by corresponding publishing company. If you make copies of any song on this website, be sure to report your usage to CCLI.
Submitted by: B-rad

Artist: By The Tree
Song: Far Away
Album: Root
Words and music by: Chuck Dennie

The other version's tab is wrong but the chords are right. I don't know the
lead guitar part yet, I just know the rhythm guitar part.

Intro:
    Eb             Bb               C                    G#
E-6-6-6-6-6-6------6-6-6-6-6-6------3-3-3-3-3-3------4-4-4-4-4-4-
B-8-8-8-8-8-8------6-6-6-6-6-6------5-5-5-5-5-5------4-4-4-4-4-4-
G-8-8-8-8-8-8------7-7-7-7-7-7------5-5-5-5-5-5------5-5-5-5-5-5-
D-8-8-8-8-8-8------8-8-8-8-8-8------5-5-5-5-5-5------6-6-6-6-6-6-
A-6-6-6-6-6-6------8-8-8-8-8-8------3-3-3-3-3-3------6-6-6-6-6-6-
E------------------6-6-6-6-6-6-- --------------------4-4-4-4-4-4-

Verse:
   Eb          Bb           G#           Bb
E-------------------------------------------------------------------
B-------------------------------------------------------------------
G-------------------------------------------------------------------
D-8-8-8-8-----------------6-6-6-6-----8-8-8-8-----------------------
A-6-6-6-6-----8-8-8-8-----6-6-6-6-----8-8-8-8-----------------------
E-------------6-6-6-6-----4-4-4-4-----6-6-6-6-----------------------

Chorus:
Eb                    Bb              C                 G#
E-6-6-6-6-6-6------6-6-6-6-6-6------3-3-3-3-3-3------4-4-4-4-4-4-
B-8-8-8-8-8-8------6-6-6-6-6-6------5-5-5-5-5-5------4-4-4-4-4-4-
G-8-8-8-8-8-8------7-7-7-7-7-7------5-5-5-5-5-5------5-5-5-5-5-5-
D-8-8-8-8-8-8------8-8-8-8-8-8------5-5-5-5-5-5------6-6-6-6-6-6-
A-6-6-6-6-6-6------8-8-8-8-8-8------3-3-3-3-3-3------6-6-6-6-6-6-
E------------------6-6-6-6-6-6-----------------------4-4-4-4-4-4-

Bridge: 2x
  Eb         Bb             C              G#                   Bb 2nd time
E-6-X-6-X-6-X-6-X---6-X-6-X-6-X-6-X---3-X-3-X-3-X-3-X---4-X-4-X-4-X-4-[-X-6]
B-8-X-8-X-8-X-8-X---6-X-6-X-6-X-6-X---5-X-5-X-5-X-5-X---5-X-5-X-4-X-4-[-X-6]
G-8-X-8-X-8-X-8-X---7-X-7-X-7-X-7-X---5-X-5-X-5-X-5-X---5-X-5-X-5-X-5-[-X-7]
D-8-X-8-X-8-X-8-X---8-X-8-X-8-X-8-X---5-X-5-X-5-X-5-X---6-X-6-X-6-X-6-[-X-8]
A-6-X-6-X-6-X-6-X---8-X-8-X-8-X-8-X---3-X-3-X-3-X-3-X---6-X-6-X-6-X-6-[-X-8]
E---------------- --6-X-6-X-6-X-6-X---------------------4-X-4-X-4-X-4-[-X-6]

After Bridge sings chorus palm mute bar chords use a clean sound:
     Eb                     Bb                          C                           G#   
D-8-8-8-8--------------------5-5-5-5----------------------------------------
A-6-6-6-6-----8-8-8-8--------3-3-3-3--------6-6-6-6-------------------------
E-------------6-6-6-6-----------------------4-4-4-4-------------------------

Then move up a whole step and play the chorus like this:
F  C  D  Bb


That should be all the except the lead guitar which I haven't figured out
yet. I learned this in like five minutes, I know the chords are right.
Please comment on anything your not sure of. Correct it if you think it
should be.

Comments about this tab

jhoe_1988 - 2004-07-31

could someone plz tell me how to play the lead guit? thx a mil


jamforchrist123 - 2005-02-09

Two Things. One, It Would Be a Cm. Not A C. Second I Think They Play Power Cords. Also, I Almost Have The Intro Tabbed Out. I'll Put It Up When I'm Done.


Add a comment/correction

Complimentary Christian Ringtones
Dadamobile and CGR have teamed up to bring your favorite Christian artists right to your phone. Sign up today and get 10 complementary ringtones!
Tab Country
Did you know CGR has a sister site w/ country guitar tabs? Well we do! Its called Tab Country. It has a great archive with a lot of country tabs.
Rockin Tabs
Are you looking for a site that has rock guitar tabs? Then Rockintabs.com is the place for you. It is a budding site with many rock guitar tabs. Submit your tab today.
Tab Gallery
Tab Gallery has a compilation of christian, rock, and country tabs all in one place. Come visit us.