Guitar Tabs
song title    band name

Join Us Today!

Don't strum alone...
be a part of the largest online Christian music community. Browse thousands of guitar tabs and chat w/ musicians like yourself.


It's Free!

This tab has not yet been rated for accuracy.Sorry, but you must be logged in to rate this tab.
Click here to log-in, or you can click here to register.
(Registration is free)

All songs owned by corresponding publishing company. If you make copies of any song on this website, be sure to report your usage to CCLI.
Submitted by: Jenacen

Song: Revolution (Live)
Artist: Jars of Clay

OK I have the piano/vocals Jars of Clay:  Furthermore book, and I
translated the piano version of the solo in the introduction into
a tablature, so I guarantee y'all that this is 100% accurate.  This
is also my first submission to ChristianGuitar.org.  Enjoy!


------------------------------------------------
-----0-2-0--------------------------------------
---2-------2---------2--------------------------
-4-----------4-4-2-4---4-2-4-4-2-4-4-2-4--------
-----------------------------------------3-2-0--
-----------------------------------------------1

-----------------------------------------------------
-------0-2-0-----------------------------------------
-----2-------2---------2-----------------------------
---4-----------4-4-2-4---4-2-4-4-2-4-4-2-4-----------
-------------------------------------------3-2-0-----
-1------------------------------------------------1-1

Comments about this tab

Jenacen - 2004-08-29

Ok someone delete this because I found out that it's not legal to get it from a book. And besides, I translated it wrong anyways. So someone delete it.


bademeister - 2005-01-30

what? Somebody tabed out this wonderful song and nowhe should delete it, just because you think everybody shoud bye the songbook? I have no money for buying songbooks for more than 30 ? only for the solo of one song! What about you do you have enough money???


PianoMan - 2005-02-21

The question is not whether or not he thinks we should go buy the book, it is the fact that it is not LEGAL to have it here out of the book. Having tabs directly from a book could get CGR in trouble and get a large fine put on it, which is obviously not good.


Add a comment/correction

Complimentary Christian Ringtones
Dadamobile and CGR have teamed up to bring your favorite Christian artists right to your phone. Sign up today and get 10 complementary ringtones!
Tab Country
Did you know CGR has a sister site w/ country guitar tabs? Well we do! Its called Tab Country. It has a great archive with a lot of country tabs.
Rockin Tabs
Are you looking for a site that has rock guitar tabs? Then Rockintabs.com is the place for you. It is a budding site with many rock guitar tabs. Submit your tab today.
Tab Gallery
Tab Gallery has a compilation of christian, rock, and country tabs all in one place. Come visit us.