Guitar Tabs
song title    band name

Join Us Today!

Don't strum alone...
be a part of the largest online Christian music community. Browse thousands of guitar tabs and chat w/ musicians like yourself.


It's Free!

This tab has been rated a 4.87 out of 5 for accuracy. (15 votes)Sorry, but you must be logged in to rate this tab.
Click here to log-in, or you can click here to register.
(Registration is free)

All songs owned by corresponding publishing company. If you make copies of any song on this website, be sure to report your usage to CCLI.
Submitted by: k2c2b202

 
Hey Now(hidden track #11)
by FM Static
Tabbed By: Kevin Bradley

Standard Tunning                               /=Slide Up
                                               \=Slide Down
                                               H=Hammer-On
Intro Riff                                     x=mute string

e|--------------------------------------------|
B|--------------------------------------------|
G|--------------------------------------------|
D|---------5/7--7--7\9--7---------------------|
A|-5-5-9-5----------------5-9-5--9/10--10-9-9-|
E|--------------------------------------------|

e|--------------------------------------------|
B|--------------------------------------------|
G|--------------------------------------------|
D|---------5/7--7--7/9--7---------------------|
A|-5-5-9-5----------------5-9-5--9H10--9H10--9|
E|--------------------------------------------|


Verse (also played in backgroud in the intro)

  
e|---------------|
B|---------------|
G|-7---7---7-----|
D|-7---7---7---7-|
A|-5---4---x---7-|
E|---------7---5-|
                                                             D-5-
Pre-Chorus: same chords palm muted. 2nd time through play a  A-5- the end.
                                                             E-3-
Chorus

e|---------------|
B|---------------|
G|-7-------------|
D|-7---4---9---5-|
A|-5---4---9---5-|
E|-----2---7---3-|

Chorus Ending

e|------------------------------|
B|------------------------------|
G|-------------7--7--7----------|
D|-5--5--7--7--7--7--7--7--5--7-|
A|-5--5--7--7--5--4--x--7--5--7-|
E|-3--3--5--5--------7--5--3--5-|

Bridge

e|---------------|
B|---------------|
G|-7-------------|
D|-7---4---9---7-|
A|-5---4---9---7-|
E|-----2---7---5-|

Order:
------
Intro
Verse(x8)
Pre-Chorus(x2)
Chorus(x2)
Chorus End
Bridge(x2)
Verse(x2)
Pre-Chorus(x4)
Chorus(x2)
Chorus End
Bridge(x2)
Chorus
Bridge(x4)
THE END

Enjoy.

Comments about this tab

gregorykicks - 2004-06-26

Kevin Bradley? My pal Kevin who helped me tabb K-car solo?? Nice tabbing. I had most of it finished but didn't have it written down so i figured i'd get it off here. I'm hoping to have my Sadie Hawkins dance tab up by the end of the week 99.9% correct.

Greg Carter


Stormin4Christ8 - 2004-07-07

Great tab, although for the verse/chorus, I think instead of powerchords they play it with a regular D form and just change the bass note, or something like that. Here is what I mean
D D/C# D/B A <-This last A might be a D/A, I'm not sure.
If so, play the D/A like this:
E-----2-------2-------2-------0- --2--
B-----3-------3-------3-------2- --3--
G-----2-------2-------2-------2- --2--
D-0-0-0-------0-------0-------2- --0--
A---------4-4-4---2-2-2---0-0-0- --0--
E------------------------------- -----


Stormin4Christ8 - 2004-07-07

Ok, well the spacing/alignment on that last post got a little messed up, sorry, but I think you can get the idea


instantsoulmate - 2004-08-24

It's much easier to play the intro like this:

e|--------------------------------------------|
B|--------------------------------------------|
G|--------------------------------------------|
D|-----4---5/7--7--7\9--7---4----4h5---5-4-4--|
A|-5-5---5----------------5---5---------------|
E|--------------------------------------------|

e|--------------------------------------------|
B|--------------------------------------------|
G|--------------------------------------------|
D|-----4---5/7--7--7/9--7---4----4h5--4h5--4--|
A|-5-5---5----------------5---5---------------|
E|--------------------------------------------|


armthehomeless - 2004-11-01

I DONT KNOW HOW TO POST A TAB THINGY ON HERE? MAYBE I HAVE TO PAY.. BUT ALL THREE OF THESE ARE WRONG.. IT SHOULD GO......

INTRO
e|---------------------------------------------|
B|---------------------------------------------|
G|---------------------------------------------|
D|-0-0-4-0--4/7--9/7--0-4-0-4/5-4-4-0----------|
A|---------------------------------------------|
E|---------------------------------------------|

e|---------------------------------------------|
B|---------------------------------------------|
G|---------------------------------------------|
D|-0-0-4-0--4/7--9/7--0-4-0-4H5-4H5-0----------|
A|---------------------------------------------|
E|---------------------------------------------|

THEN IT STARTS... THEY ARE POWER CHORDS...

e|---------------------------------------------|
B|---------------------------------------------|
G|-77------44----------------------------------|
D|-77--44--44--77------------------------------|
A|-55--44--22--77------------------------------|
E|-----22------55------------------------------|

AND IT REPEATS ITSELF THE WHOLE TIME.. YOU HAVE TO LISTEN FOR STUMMING BEAT AND MUTING.. EASY BUT AWESOME SONG


fmnut - 2005-01-24

sweet tab with those corrections, my friends will be amazed


superchick52 - 2005-01-29

totally awesome i love it when i put this and some of the corrections together it should be beautiful...


jayemm87 - 2005-03-05

I think the verse is as follows:


e--2---2---2---2
B--3---3---3---3
G--2---2---2---2
D000---0---0---0
A----444-222-000
E---------------

well, that is how i play it...


futarockstar - 2005-05-17

hey ur da man for figurin out da tabs so dont wory wat that othat dude said


abeabe - 2005-09-25

e--------------------------------------------------------------------------
b--------------------------------------------------------------------------
g--------0h2-2-2/4/2--------------------------0h2-2-2/4/2------------------
d-0-0-4-0------------0-4-0-4/5-5-4-4--0-0-4-0-------------0-4-0-4/5-4-4/5-4
a--------------------------------------------------------------------------
E--------------------------------------------------------------------------

This is the easiet way to play the intro


McDaddy - 2005-09-28

Ok guys, the tabs all sound the same, but the easiest and the most accurate inro has got to be this.Listen to song 4 timing
e------------------------------------------------------------------------------
B------------------------------------------------------------------------------
G------------------------------------------------------------------------------
D----------5h7-s7-9-7--------------------------5h7-s7-9-7----------------------
A--5-5-9-5------------5-9-5-9h101099---5-5-9-5------------5-9-5-9109-9109------
E-------------------------------------------------------------------------10---

The Part where it goes like 5h7-s797, In order to slide up to the 7 that it looks like you're already on, you have to quickly lift that finger up and have the finger on the 5 slide up to the 7, I hope this makes sence, and it might not be the easiest to learn, but I can play all the others, and this is the easiest once you get it. And I know that instead of playing the E10, you could play A5, but since your fingers are all up at that part it's just easier to do it that way, plus The actuall tones are a little different on the song so E10 sounds best. sorry for so many words, just trying to help.
Thanks guys, Shane.


thedrewster551 - 2005-12-29

I've seen alot of different ways that this has been played and tried all of them, personally there aren't very many good ones, so here is the way i play it.

e-----------------------------------------
B-----------------------------------------
G-----------------------------------------
D-0-0-4-0--5/7-7--7/9-7--0-4-0-4/5-5-4-4--
A-----------------------------------------
E-----------------------------------------


e-------------------------------------------
B-------------------------------------------
G-------------------------------------------
D-0-0-4-0--5/7-7--7/9-7--0-4-0-4/5-4-4/5-4--
A-------------------------------------------
E-------------------------------------------

Thank You.


alexanderthegr8 - 2006-03-10

Hey you guys I am new at this, but isn't a--5-- the same as d--0--.That's the way I play it just cause its easier than going 5595.


joshe291 - 2006-03-24

yeah, this guys a beginner and he knows that it doesnt matter if you play it on the 5th fret on the A string or open on the D...so stop saying no ur tab is wrong and this and that, you can play a solo more than one way. a guitar is symetrical all the way up the strings...thats why theres several ways of play scales too. my gosh, we dont have to keep putting ppl down and saying their tab sucks, to me there all rite, they sound the same!


pete_d2004 - 2006-12-01

wow... enough comments on this one? good job though. all of you. too bad everyone has to argue over things on a christian website


RelientKrocks92 - 2007-06-04

yeah I'm pretty sure that the bass note is picked alone before the whole chord, like in some people's corrections


Add a comment/correction

Complimentary Christian Ringtones
Dadamobile and CGR have teamed up to bring your favorite Christian artists right to your phone. Sign up today and get 10 complementary ringtones!
Tab Country
Did you know CGR has a sister site w/ country guitar tabs? Well we do! Its called Tab Country. It has a great archive with a lot of country tabs.
Rockin Tabs
Are you looking for a site that has rock guitar tabs? Then Rockintabs.com is the place for you. It is a budding site with many rock guitar tabs. Submit your tab today.
Tab Gallery
Tab Gallery has a compilation of christian, rock, and country tabs all in one place. Come visit us.