Guitar Tabs
song title    band name

Join Us Today!

Don't strum alone...
be a part of the largest online Christian music community. Browse thousands of guitar tabs and chat w/ musicians like yourself.


It's Free!

This tab has been rated a 5.00 out of 5 for accuracy. (5 votes)Sorry, but you must be logged in to rate this tab.
Click here to log-in, or you can click here to register.
(Registration is free)

All songs owned by corresponding publishing company. If you make copies of any song on this website, be sure to report your usage to CCLI.
Submitted by: AdamR

#########################################################
# Title: Word of God, Speak
# Album: Spoken For
# Artist: MercyMe
# Tabbed by: Adam Reyher (runnerforhim@hotmail.com)
#
#########################################################
#  Adam's Comments:
#  This is a powerful song. It will almost bring you to tears about how much 
#  you are in absolute awe in the presence of God. It is one of my all time 
#  favorites, and is very worshipful to pick on the guitar and sing along. 
#  Enjoy, and God Bless!
#
#########################################################
#
#  NOTE: This is not the FULL tab. Full as in meaning it doesn't reflect each 
#  syllable of the song. It only represents the base tune and note changes that 
#  are required to make the song what it is. Adding the extra syllables ruins 
#  the guitar piece in my opinion.
#
#########################################################


Verse 1
e|--------------------------------------------------------------------------------|
B|-------------------------------------------------------------------------1-3-3--|
G|-----0-2-0---0-2-0-0--0-0------------------0-2-0---0-2-0-0---0-0-0-0---2--------|
D|---2-------2--------------2-----0--------2-------2-------------------2----------|
A|-3--------------------------3-3---3-3--3----------------------------------------|
E|--------------------------------------------------------------------------------|


Chorus
e|-----0-0--0-0-0------------0----------------------0-0--0-0------------0------------------|
B|-1-3------------3-1-3--3-3---3-1-1---3-1-1--1-1-3----------3-1-3--3-3---3-1-1---1-3-1-1--|
G|-----------------------------------2------------------------------------------2----------|
D|-----------------------------------------------------------------------------------------|
A|-----------------------------------------------------------------------------------------|
E|-----------------------------------------------------------------------------------------|


After Chorus Bridge
e|----------|
B|----------|
G|-0-0-0-0--|
D|----------|
A|----------|
E|----------|


Verse 2
e|-------------------------------------------------------------------------------|
B|------------------------------------------------------------------------1-3-3--|
G|-----0-2-0---0-2-0-0--0-0-----------------0-2-0---0-2-0-0---0-0-0-0---2--------|
D|---2-------2--------------2-----0-------2-------2-------------------2----------|
A|-3--------------------------3-3---3-3-3----------------------------------------|
E|-------------------------------------------------------------------------------|


Chorus
e|-----0-0--0-0-0------------0----------------------0-0--0-0------------0------------------|
B|-1-3------------3-1-3--3-3---3-1-1---3-1-1--1-1-3----------3-1-3--3-3---3-1-1---1-3-1-1--|
G|-----------------------------------2------------------------------------------2----------|
D|-----------------------------------------------------------------------------------------|
A|-----------------------------------------------------------------------------------------|
E|-----------------------------------------------------------------------------------------|


Chorus 2
e|-1-0---0--0-0--3-1-0-------0----------------------0-0--0-3-1-0--------0-----------------|
B|-----3---------------3-3-3---3-1-1---3-1-1--1-1-3--------------3--3-3---3-1-1---1-3-1-1-|
G|-----------------------------------2------------------------------------------2---------|
D|----------------------------------------------------------------------------------------|
A|----------------------------------------------------------------------------------------|
E|----------------------------------------------------------------------------------------|


Last Bridge
e|---------------------------------------|
B|---------------------------------------|
G|-----0-2-0---0-2-0-0--0-0--------------|
D|---2-------2--------------2--------0---|
A|-3--------------------------3-3--3--3--|
E|---------------------------------------|

Comments about this tab

bradymc - 2004-03-17

When I first looked at this tab, I was confused until I realized it was the tab for the melody of the song - not the guitar or piano parts.


Add a comment/correction

Complimentary Christian Ringtones
Dadamobile and CGR have teamed up to bring your favorite Christian artists right to your phone. Sign up today and get 10 complementary ringtones!
Tab Country
Did you know CGR has a sister site w/ country guitar tabs? Well we do! Its called Tab Country. It has a great archive with a lot of country tabs.
Rockin Tabs
Are you looking for a site that has rock guitar tabs? Then Rockintabs.com is the place for you. It is a budding site with many rock guitar tabs. Submit your tab today.
Tab Gallery
Tab Gallery has a compilation of christian, rock, and country tabs all in one place. Come visit us.