Guitar Tabs
song title    band name

Join Us Today!

Don't strum alone...
be a part of the largest online Christian music community. Browse thousands of guitar tabs and chat w/ musicians like yourself.


It's Free!

This tab has been rated a 2.50 out of 5 for accuracy. (2 votes)Sorry, but you must be logged in to rate this tab.
Click here to log-in, or you can click here to register.
(Registration is free)

All songs owned by corresponding publishing company. If you make copies of any song on this website, be sure to report your usage to CCLI.
Submitted by: B-rad

Artist: By The Tree
Song: Change
Words and Music by: Chuck Dennie & Kevin Rhoads
This song rocks.

Verse: Palm muted 
B G D A

Chorus:
B D A E

Guitar Solo:
E---------------------------------------------------------------------------
B---------------------------------------------------------------------------
G------------------------------------------------------------9-9-9-9-9-9p7--
D-----9----7/9----9-----7/9-----9--5/7--9-9---------------------------------
A-/0//9-9------/0//9--9------/0//9----------7-7--9-9-9-9-9p7----------------
E---------------------------------------------------------------------------


E----------------------------------------------------------------------
B----------------------------------------------------------------------
G----------------------------------------------------------------------
D--v9-v9-v9-v12-v12-v12-v14-v14-v14-v15-v15-v15/--15-14-12-9-----------
A----------------------------------------------------------------------
E----------------------------------------------------------------------


/=slide
p=pull off
v=vibrate strings

The chords are pretty easy, at the beginning of the solo you slide down the
A string to the 9th fret and hit the 9th fret on the D string, just in case
you get confused. The notes in the solo are right but Kevin has some cool
hammer ons  and pulloffs going on that you can add. If you have any more By
The Tree songs you want tabbed just email me at  muffinman002003@yahoo.com.

Comments about this tab

No comments/corrections found. Add your own

Complimentary Christian Ringtones
Dadamobile and CGR have teamed up to bring your favorite Christian artists right to your phone. Sign up today and get 10 complementary ringtones!
Tab Country
Did you know CGR has a sister site w/ country guitar tabs? Well we do! Its called Tab Country. It has a great archive with a lot of country tabs.
Rockin Tabs
Are you looking for a site that has rock guitar tabs? Then Rockintabs.com is the place for you. It is a budding site with many rock guitar tabs. Submit your tab today.
Tab Gallery
Tab Gallery has a compilation of christian, rock, and country tabs all in one place. Come visit us.