Guitar Tabs
song title    band name

Join Us Today!

Don't strum alone...
be a part of the largest online Christian music community. Browse thousands of guitar tabs and chat w/ musicians like yourself.


It's Free!

This tab has been rated a 1.25 out of 5 for accuracy. (4 votes)Sorry, but you must be logged in to rate this tab.
Click here to log-in, or you can click here to register.
(Registration is free)

All songs owned by corresponding publishing company. If you make copies of any song on this website, be sure to report your usage to CCLI.
Submitted by: Jesussuit

This is just the main intro... This is my first time to tab a song just
by listening to it... but I am 95% sure that it is correct!! 12s14s12 means
hit 12 then SLIDE to 14, then quickly go back down to 12. 9h10 means to hit
9 then hit 10, pull off 10, and hit 9 again! Sorry if that is confusing, but
just listen to the song and you'll get it. STANDARD E TUNING.

e-------------------------------------
B-------------------------------------
G-------------------------------------
D-----------------------0-0--0--------
A-5-5-9-9-12-12-12s14s12-9-12-10-9----
E-------------------------------------

e-------------------------------------
B-------------------------------------
G-------------------------------------
D-----------------------0-0-----------
A-5-5-9-9-12-12-12s14s12-9-9h10-9h10-5
E-------------------------------------

Comments about this tab

monkeygirlrosie - 2005-01-17

Actually it is like
e-------------------------------------
B-------------------------------------
G-------------------------------------
D-----------------------0-0-----------
A-5-5-9-5-12-12-12s14s12-9-10-10-9-7--
E-------------------------------------

e-------------------------------------
B-------------------------------------
G-------------------------------------
D-----------------------0-0-----------
A-5-5-9-5-12-12-12s14s12-9-9h10-9h10-5
E-------------------------------------


Vanquish385 - 2005-02-13

This is good, but there are a few changes that make it easier to play and sound better

First:
A|-5-| is the same thing as D|-0-|
so instead just play the D string open twice at the beginning

also:
the hammer on at the end sounds better if you hit the 9th fret again

so the whole intro would look like this:

e-------------------------------------
B-------------------------------------
G-------------------------------------
D-0-0-------------------0-0-----------
A-----9-5-12-12-12s14s12-9-10-10-9-7--
E-------------------------------------

e----------------------------------------
B----------------------------------------
G----------------------------------------
D-----------------------0-0--------------
A-5-5-9-5-12-12-12s14s12-9-9h10-9-9h10-9-
E----------------------------------------


pete_d2004 - 2006-08-24

hey... tis is another useful, easier, tab. it fits with the song too.

E/------------------------------------
B/------------------------------------
G/------------------------------------
D/-0-0-4-0-4/77-7h97-0-4-0-4/5-5-4-4--
A/------------------------------------
E/------------------------------------


E/------------------------------------
B/------------------------------------
G/------------------------------------
D/-0-0-4-0-4/77-7h97-0-4-0-4h54-4h54-0
A/------------------------------------
E/------------------------------------


Add a comment/correction

Complimentary Christian Ringtones
Dadamobile and CGR have teamed up to bring your favorite Christian artists right to your phone. Sign up today and get 10 complementary ringtones!
Tab Country
Did you know CGR has a sister site w/ country guitar tabs? Well we do! Its called Tab Country. It has a great archive with a lot of country tabs.
Rockin Tabs
Are you looking for a site that has rock guitar tabs? Then Rockintabs.com is the place for you. It is a budding site with many rock guitar tabs. Submit your tab today.
Tab Gallery
Tab Gallery has a compilation of christian, rock, and country tabs all in one place. Come visit us.