Guitar Tabs
song title    band name

Join Us Today!

Don't strum alone...
be a part of the largest online Christian music community. Browse thousands of guitar tabs and chat w/ musicians like yourself.


It's Free!

This tab has been rated a 4.00 out of 5 for accuracy. (1 vote)Sorry, but you must be logged in to rate this tab.
Click here to log-in, or you can click here to register.
(Registration is free)

All songs owned by corresponding publishing company. If you make copies of any song on this website, be sure to report your usage to CCLI.
Submitted by: Kris 24\7

Never Gonna Be As Big As Jesus
Audio Adrenaline

I know you guys got this song already but maybe this is a bit easier
to understand,and its in normal tuning.the solo should sound a lot like
the one on the cd Bloom.

Verseriff:
          e---------------------------|
(2 bars   B------7--------7---7--7--7-|
 of bass) G------7--------7---7—-9--7-|
          D------7--------7---7--7--7-|    6x
          A—7h9-------7h9-------------|
          E---------------------------|


 
Newriff 1:
           -7-7--7--7-----7---7-------|
           -8-8--8--8-----8---8-------|
           -7-7--7--7-----7---7-------|    2x
           ---------------------------|
           ---------------------------|
           ---------------------------|

Verseriff:
           ---------------------------|   
           ------7--------7--7---7--7-|
           ------7--------7--7---9--7-|
           ------7--------7--7---7--7-|    6x
           -7h9-------7h9-------------|
           ---------------------------|
           

Newriff 1:                                 4x



Newriff 2:

           --7-7---7----7-----7--|-7-7--7--7---7-----
           --8-8---8----8-----8--|-8-8--8--8---8-----
           --9-9---9----9-----9--|-7-7--7--7---7-----
           --9-9---9----9-----9--|-9-9--9--9---9-----  2x
           ----------------------|-------------------
           ----------------------|-------------------

Newriff 3:
           ---------------------------|
           -------7-------7--7--7--7--|
           -------7-------7--7--9--7--|
           -------7-------7--7--7--7--|
           --7h9------7h9-------------|
           ---------------------------|
           ---------------------------|
           -----7--7--7----7--7-------|
           -----7--7—-9p7--7--7-------|   
           -----7--7--7--9-7--7-------|
           -7h9-----------------------|
           ---------------------------|



               



                 Repeat Newriff 2



Ref Intro:
          
          -----------------------|
          -----2---4----6--6-----|
          -----2---4----6--6-----|
          -5---2---2----4--4-----|
          -5---------------------|
          -3---------------------|

Refrain:
          -----------------------|-----------------------
          -----------------------|-----------------------
 (/\=     -----------------------|----------------12—-12\
 slide    -----------------------|----------------12—-12\
 up or    -----------------------|----------------10—-10\   
 down)    -----------------------|-----------------------
                                                           
          -----------------------|-----------------------
          -----------------------|-----------------------
          -7---------------------|-----------------7—-7/-
          -7---------------------|-----------------7—-7/-
          -5---------------------|-----------------5—-5/-
          -----------------------|-----------------------
          
          -----------------------|-----------------------
          -----------------------|-----------------------
          --12-------------------|-----------------------
          --12-------------------|-----------------------
          --10-------------------|-----------------------
          -----------------------|-----------------------

          



          -----------------------|-----------------------
          -----------------------|-----------------------
          -----------------------|-----------------------
          --------------------5--|--5--7---9----11--11---
          --------------------5--|--5--7---9----11--11---
          ---------------3—3--3--|--3--5---7----9---9----


          --2--2---2--2---2-2----|--0--0---0---0---0-0---
          --3--3---3--3---3-3----|--3--3---3---3---3-3---
          --2--2---2--2---2-2----|--2--2---2---2---2-2--- 
          -----------------------|-----------------------
          -----------------------|-----------------------
          -----------------------|-----------------------

          --0--0---0---0---0-0---|--3--3---3---3----3----
          --3--3---3---3---3-3---|--3--3---3---3----3----
          --2--2---2---2---2-2---|--0--0---0---0----0---- 
          -----------------------|--0--0---0---0----0----
          -----------------------|-----------------------
          -----------------------|-----------------------

          -----------------------|-----------------------
          -----------------------|-----------------------
          -----------------------|----------------------- 
          ---------2----2----2---|-----------------------
          --5--4---2----2----2---|-----------------------
          --3—-2-----------------|-----------------------



Verseriff:   4x


Newriff 1:   4x  


Newriff 2:   1x
Newriff 3:   1x
Newriff 2:   1x
Ref Intro:   1x


Refrain:     1x    (leave out very last bar)


Solo:              

B=bending following number a fret up
     

-0h2p0h2p0------------------|----------------------------
-----------3-3--------------|----------------3h5p3--b5---
------------4-2h4-2---------|-----------2---4------------
-----------------4---2p0----|--0-2p0-/4------------------
----------------------------|----------------------------
----------------------------|----------------------------

----------------------------|-5--------------------------
-b5-b5-b5-b5-b5-5p3-3-5p3-b5|--6p3-6p5p3-6p5p3-6p56p5-3-5
-------------------4--------|----------------------------
----------------------------|----------------------------
----------------------------|----------------------------
----------------------------|----------------------------

----------------------------|------5--2-2--2-5--2-2-3p2--
3-b5r5p3-3-3h5p3-5-3---3----|-5p3--3--3-3--3-3--3-3-3----
--------4------------4------|----------------------------
----------------------------|----------------------------
----------------------------|----------------------------
----------------------------|----------------------------

----------------------------|---5-10-10-10-12p10-12p10---
-3h5-5-6-6-5p3---3-3--3-3-3-|5h7-----10-10-10----10---10-
---------------4---4--4-4-4-|----------------------------
----------------------------|----------------------------
----------------------------|----------------------------
----------------------------|----------------------------

-2--3---2-------------------|----------------------------
-3--3---3-------------------|----------------------------
-2--2---2-------------------|---3---3---3---3---3--------
----------------------------|2h4-2h4-2h4-2h4-2h4---------
----------------------------|----------------------------
----------------------------|----------------------------

-2--3---2-------------------|
-3--3---3-------------------|
-2--2---2-------------------|
----------------------------|
----------------------------|
----------------------------|



Newriff 2:  1x
Newriff 3:  1x
Newriff 2:  1x

Ref Intro:  1x

Refrain:..................
        
        ...........................


That’s most of the stuff to this song.
It’s a totally different way of playing 
it than the other versions ,but 
works out too.If you like it then send me a short mail:
www.7kcopleys@compuserve.com

Comments about this tab

No comments/corrections found. Add your own

Complimentary Christian Ringtones
Dadamobile and CGR have teamed up to bring your favorite Christian artists right to your phone. Sign up today and get 10 complementary ringtones!
Tab Country
Did you know CGR has a sister site w/ country guitar tabs? Well we do! Its called Tab Country. It has a great archive with a lot of country tabs.
Rockin Tabs
Are you looking for a site that has rock guitar tabs? Then Rockintabs.com is the place for you. It is a budding site with many rock guitar tabs. Submit your tab today.
Tab Gallery
Tab Gallery has a compilation of christian, rock, and country tabs all in one place. Come visit us.