Guitar Tabs
song title    band name

Join Us Today!

Don't strum alone...
be a part of the largest online Christian music community. Browse thousands of guitar tabs and chat w/ musicians like yourself.


It's Free!

This tab has been rated a 3.00 out of 5 for accuracy. (1 vote)Sorry, but you must be logged in to rate this tab.
Click here to log-in, or you can click here to register.
(Registration is free)

All songs owned by corresponding publishing company. If you make copies of any song on this website, be sure to report your usage to CCLI.
Submitted by: Kris 24\7

Walk On Water
Audio Adrenaline


This is my first try to enter a tab into your website.
I only wrote down the basic riffs hope its O.K.
Use normal tuning.Enjoy.
|= end of bar (even if one bar looks longer than the other)
/or\=slide up or slide down from any not on string   
()= optional note
h= hammer on
p=pull off
b=bending (up to following number)
r=release  (down to following number)
s=slide

Intro:
e--------------------|---------------------
b------------(5)-----|---------------------
G--7-7-7-7--6-6------|---------------------  4x
D--5-5-5-5--7-7----7-|--7-7-7-7---6--9--7--
A--5-5-5-5--5-5----7-|--7-7-7-7---7--7--5--
E--------------------|--5-5-5-5---5--5-----

Verse:
-----------|----------------|-----------|------------------
-----------|----------------|-----------|------------------
-2---------|-2-2-2-2--------|-2---------|-2-2-2-2-4b5r42---
-----------|-----------2h4--|-----------|---------------4p-
-----------|----------------|-----------|------------------
-----------|----------------|-----------|------------------

-----------|----------------|-----------|------------------
-----------|----------------|-----------|------------------
-2---------|-2-2-2-2--------|-2---------|--2-2-2-2---------
-----------|-----------2h4--|-----------|------------------
-----------|----------------|-----------|------------------
-----------|----------------|-----------|------------------

Repeat Intro 2x

Verse (second half):
-----------|----------------|--------|---------------------
-----------|----------------|--------|---------------------
-2---------|-2-2-2-2--------|-2------|----2-2-2-2-4b5r42---
-----------|-----------2h4--|--------|------------------4p-
-----------|----------------|--------|---------------------
-----------|----------------|--------|---------------------

-----------|----------------|--------|-----10-9--9---------
-----------|----------------|--------|9s10-10-10-10-10-x-10
-2---------|-2-2-2-2--------|-2------|--------------9--x-9-
-----------|-----------2h4--|--------|---------------------
-----------|----------------|--------|---------------------
-----------|----------------|--------|---------------------


---------------------|--------9--9---------
---------------------|----s10-10-10-10-x-10
-2--------------10h12|-10-s10-------9--x-9-
----------------9----|-9-s9---------------
---------------------|---------------------
---------------------|---------------------



Refrain:                                      
-2--2---2--2---------|---------------------
-3--3---3--3---/5----|-3--3---3--3--3--3---
-4--4---4--4---/6----|-2--2---2--2--2--2---
-4--4---4--4---/7----|-4--4---4--4--4--4---    (this guitar 
---------------------|---------------------     is barely
---------------------|---------------------      audible)

---------------------|---------------------
---------------------|---------------------
---------------------|---------------------
----------0--0----0--|---------0--0---0----
--0-0-4-0-------4--4-|-0-0-4-0------4---4--     (The rest is
---------------------|---------------------      pretty simple)

-2--2---2--2---------|---------------------
-3--3---3--3---/5----|-3--3----------------
-4--4---4--4---/6----|-2--2----------------
-4--4---4--4---/7----|-4--4----------------
---------------------|---------------------
---------------------|---------------------

Solo(look at other tab on this website)

Comments about this tab

s.patrick - 2005-01-22

e--------------------|---------------------
b--------------------|---------------------
G--7-7-7-7--6-6----2-|---------------------
D--7-7-7-7--7-7----2-|--7-7-7-7--6----2----
A--5-5-5-5--5-5----0-|--7-7-7-7--7----2----
E--------------------|--5-5-5-5--5----0----
I don't know if thats right but it sounds better to me


christianpunker - 2005-03-13

-----------------------------------
-----------------------------------
-----------------------------------
-4-4-4-4---2--2-2------------------
-5-5-5-5---4--0-0------------------
------------------4-4-4-4---2--2-2-
------------------5-5-5-5---4--0-0-

THATS THE CHOURS TRUST ME I HAVE TO PLAY IT A CHURCH AND E HAVE REAL MUSIC


John_prs_guitar - 2005-12-30

My band does this song and i figured the basics out and i adlib on the rest but here's the way i play the intro. See what ya'll think.

-----------------------------------------------------------
-3-3-3-3---------------------------------------------------
-2-2-2-2-----2----2-2-2-2------------------------------------
-0-0-0-0-----2----2-2-2-2-----2---------------------------------
----------4--0----0-0-0-0-----2-----------------------------
---------------------------4--0-------------------------
I'm positive that if you play it right, you'll agree it sounds correct.


Add a comment/correction

Complimentary Christian Ringtones
Dadamobile and CGR have teamed up to bring your favorite Christian artists right to your phone. Sign up today and get 10 complementary ringtones!
Tab Country
Did you know CGR has a sister site w/ country guitar tabs? Well we do! Its called Tab Country. It has a great archive with a lot of country tabs.
Rockin Tabs
Are you looking for a site that has rock guitar tabs? Then Rockintabs.com is the place for you. It is a budding site with many rock guitar tabs. Submit your tab today.
Tab Gallery
Tab Gallery has a compilation of christian, rock, and country tabs all in one place. Come visit us.