Guitar Tabs
song title    band name

Join Us Today!

Don't strum alone...
be a part of the largest online Christian music community. Browse thousands of guitar tabs and chat w/ musicians like yourself.


It's Free!

This tab has been rated a 3.33 out of 5 for accuracy. (3 votes)Sorry, but you must be logged in to rate this tab.
Click here to log-in, or you can click here to register.
(Registration is free)

All songs owned by corresponding publishing company. If you make copies of any song on this website, be sure to report your usage to CCLI.
Submitted by: No Name Face

Lifehouse
Take Me Away
Stanley Climbfall

I'm re-submiting this tab because my old one had a lot of mistakes.


Intro: 

Guitar1:(clean) 
e--------------------------]
b--------------------------]
g----7-----------7---------]
d---5--5-7------5--5-7-5---]
a----------5---------------]
e--------------------------]  do this over and over

Guitar2:(dist)
e-------------------------------------------------]
b-----------10--15-14-----------------------------]
g---7--9-11-----------11--11----12-11-7--6--------]
d-------------------------------------------------]
a-------------------------------------------------]
e-------------------------------------------------]

after that line play Guitar1 part with distortion while
Guitar2 does this chord progression:

D5   G5   B5   G5 x2


Verse1:(clean) D  G  B  G  x4  (actually you can just pick some of the notes
                                out of the chords but I'm not sure which one
                                and it sounds OK strummed lightly)

Pre-Chorus:(dist) palm-mute D

Chorus:(dist) D   A   B   G
               D   A   B   E/G (play each chord half the measure on the E/G)

Verse2:(clean) same as Verse1 only just x2

Chorus

Bridge:(dist) A5  B5  E5  D5  x2 (this might not be right but it sounds OK)

Solo: (Guitar one plays chorus chords)

e----------------------------------------------------------------------]
b------------------------------------10--12--14--12---15-14------------]
g---7--6--11-9--7-9------11-9--12-11------------------------11---7-----]
d-------------------7--9-----------------------------------------------]
a----------------------------------------------------------------------]
e----------------------------------------------------------------------]

Chorus x2

That's pretty close to the real thing. There is a lead guitar going through
the verses but I don't know what it is and the solo is basically the lead to
the choruses with a little difference but close enough.

Enjoy the song

questions e-mail to: d_yakel@hotmail.com

Lifehouse Rocks!

Comments about this tab

No comments/corrections found. Add your own

Complimentary Christian Ringtones
Dadamobile and CGR have teamed up to bring your favorite Christian artists right to your phone. Sign up today and get 10 complementary ringtones!
Tab Country
Did you know CGR has a sister site w/ country guitar tabs? Well we do! Its called Tab Country. It has a great archive with a lot of country tabs.
Rockin Tabs
Are you looking for a site that has rock guitar tabs? Then Rockintabs.com is the place for you. It is a budding site with many rock guitar tabs. Submit your tab today.
Tab Gallery
Tab Gallery has a compilation of christian, rock, and country tabs all in one place. Come visit us.