Guitar Tabs
song title    band name

Join Us Today!

Don't strum alone...
be a part of the largest online Christian music community. Browse thousands of guitar tabs and chat w/ musicians like yourself.


It's Free!

This tab has been rated a 5.00 out of 5 for accuracy. (2 votes)Sorry, but you must be logged in to rate this tab.
Click here to log-in, or you can click here to register.
(Registration is free)

All songs owned by corresponding publishing company. If you make copies of any song on this website, be sure to report your usage to CCLI.
Submitted by: scheller

Arise
Paul Baloche
Album: Offering of Worship
C 2003 HosannaMusic

Tabbed by: scheller     sonnyschell@hotmail.com

The other chord sheet for this song is pretty much all correct, but one chord 
was a little off and I've tabbed out the little fills and electric gtr stuff.

Chords:
E      022100
Bsus4  x24400
D6     xx0202
A      x02220
C#m    x46650
Asus2  x02200

Intro
E  Bsus4  D6  A

Verse
E  Bsus4  D6  A

Verse Fill:
  E            (Bsus4)      D6           (A)  
|-------4----|------------|-------2----|--------|
|----5-------|------------|----0-------|--------|
|-4----------|------------|-2----------|--------|
|------------|------------|------------|--------|
|------------|------------|------------|--------|
|------------|------------|------------|--------|

Chorus
E  Bsus4  C#m  Asus2

Chorus lead:
  (E)            (Bsus4)    (C#m)        (Asus)
|--------------|----------|------------|----------|
|--------------|----------|------------|----------|
|-9---11---13--|-8--------|-6---8---9--|----------|
|--------------|----------|------------|----------|
|-7----9---11--|-6--------|-4---6---7--|-7--------|
|--------------|----------|------------|-5--------|

Comments about this tab

CharlesFBarnett - 2008-08-05

This tab is great! I had one correction and that was on the three-note guitar thing early in the song. Seems that the first sequence on the recording is B C# G#, rather than B E G#. Check it out. Chuck Barnett


Add a comment/correction

Complimentary Christian Ringtones
Dadamobile and CGR have teamed up to bring your favorite Christian artists right to your phone. Sign up today and get 10 complementary ringtones!
Tab Country
Did you know CGR has a sister site w/ country guitar tabs? Well we do! Its called Tab Country. It has a great archive with a lot of country tabs.
Rockin Tabs
Are you looking for a site that has rock guitar tabs? Then Rockintabs.com is the place for you. It is a budding site with many rock guitar tabs. Submit your tab today.
Tab Gallery
Tab Gallery has a compilation of christian, rock, and country tabs all in one place. Come visit us.