Guitar Tabs
song title    band name

Join Us Today!

Don't strum alone...
be a part of the largest online Christian music community. Browse thousands of guitar tabs and chat w/ musicians like yourself.


It's Free!

This tab has been rated a 2.18 out of 5 for accuracy. (17 votes)Sorry, but you must be logged in to rate this tab.
Click here to log-in, or you can click here to register.
(Registration is free)

All songs owned by corresponding publishing company. If you make copies of any song on this website, be sure to report your usage to CCLI.
Submitted by: Sons O' Thunder

Rawkfist
Thousand Foot Krutch

Intro:
This song starts out with no instruments, just vocals.
E------------------------
B------------------------
G------------------------
D------------------------
A--------------------2-2-
E--------------------2-2-

verse: repeat this a coule times
E---------------------------------------------------------
B---------------------------------------------------------
G---------------------------------------------------------
D---------------------------------------------------------
A-0-2--0-2-2--2-2--0-2--0-2-2--2-2--0-2--0-2-2--5-4-0-----
E-0-2--0-2-2--2-2--0-2--0-2-2--2-2--0-2--0-2-2--5-4-0-----

chorus:
E---------------------------------------------------------------
B---------------------------------------------------------------
G---------------------------------------------------------------
D---------------------------------------------------------------
A-2-2-0--0-0--7-7-7/9--9-5-2-2-0--0-0--7-7-7/9--9-9-5-0-2--5-0-7
E-2-2-0--0-0--7-7-7/9--9-5-2-2-0--0-0--7-7-7/9--9-9-5-0-2--5-0-7

Thats pretty much it. if u have any changes, dont even bother emailing. jus
go ahead an fix it. Signin out: ben

Comments about this tab

Sammy - 2004-02-06

I think in the Verse it goes
D--7-9--
A--5-7-- and so on
D-------

rather than

D-----
A--0-2
D--0-2


guitarfreaq - 2004-02-22

Is this song supposed to be in drop D????


Jam4Jesus123 - 2004-04-12

sammy, you rock! thanks man
I love Jesus!!!


quik822silver - 2004-04-26

Yea, its in drop D, and i think the correction Sammy made is correct.
PEACE!


random-in-Deed1 - 2004-07-29

Nice try, dawg, but that is totally off. Go to my tab of this song. I know I have it right.


cryistalrider - 2004-08-01

i need tkf i climb tabs if any one can help my just post it thx


pelicanman - 2005-02-09

This is gonna sound stupid but im a beginner so bear with me. What do the xxxx, h2, and 5p2 mean? plz awnser im beggin.


pelicanman - 2005-02-09

plz dissregard my last comment. that was very stupid of me. I think i was thinking of another song.


pelicanman - 2005-02-09

guitarfreaq yes it is in drop D


rock4christ08 - 2005-02-23

God made pelicans so they couldn't talk......... -captian obvious


shanaynay - 2005-08-23

i think that the verse goes
5h7 XXXX 5h7 on the d string
peace


miky-kim070 - 2006-02-19

i was sorta confused


antipiff - 2006-04-10

im suprised dani hasnt tried to cut your head off too


josh111 - 2006-05-31

hey antipiff yeah all dani does it ruin u and make u feel no good call 866-5943


Add a comment/correction

Complimentary Christian Ringtones
Dadamobile and CGR have teamed up to bring your favorite Christian artists right to your phone. Sign up today and get 10 complementary ringtones!
Tab Country
Did you know CGR has a sister site w/ country guitar tabs? Well we do! Its called Tab Country. It has a great archive with a lot of country tabs.
Rockin Tabs
Are you looking for a site that has rock guitar tabs? Then Rockintabs.com is the place for you. It is a budding site with many rock guitar tabs. Submit your tab today.
Tab Gallery
Tab Gallery has a compilation of christian, rock, and country tabs all in one place. Come visit us.