Guitar Tabs
song title    band name

Join Us Today!

Don't strum alone...
be a part of the largest online Christian music community. Browse thousands of guitar tabs and chat w/ musicians like yourself.


It's Free!

This tab has been rated a 5.00 out of 5 for accuracy. (1 vote)Sorry, but you must be logged in to rate this tab.
Click here to log-in, or you can click here to register.
(Registration is free)

All songs owned by corresponding publishing company. If you make copies of any song on this website, be sure to report your usage to CCLI.
Submitted by: Adam K

Bleach-"Living"

INTRO
               D5                        D5 
G--7-----------7---777777----7-----------7---777777----7------------7---777777-
D-7--7-9s10s9--7---777777---7--7-9s10s9--7---777777---7--7-9s10s9---7---777777-
A--------------5---555555----------------5---555555-----------------5---555555-
E--------------5---555555----------------5---555555-----------------5---555555-
                P.M.......                P.M.......                 P.M.......
---7-------------
--7--7-9s10s9--7-
---------------7-
---------------5-

VERSE
(1st part of verse is the same as the INTRO)
(Then)D5 G5 (x4)

CHORUS
D5 B5 G5 (x2)

VERSE

CHORUS 2
D5 B5 G5 (x4)
D5

BRIDGE
E5 G5 D5 A5 (x4)
E5
(2nd part of bridge has same chords as the CHORUS and leads right in to the CHORUS)

CHORUS 3
D5 B5 G5 (x4)

OUTRO
G--7-----------7---777777----7-----------7-7-
D-7--7-9s10s9--7---777777---7--7-9s10s9--7-7-
A--------------5---555555----------------5-5-
E--------------5---555555----------------5-5-

 Tabbed by Adam K

Comments about this tab

Roast - 2004-08-04

I'm pretty sure this song is actually in drop D, and all of the D chords are played in the lower octave.

E|---|
B|---|
G|---|
D|-0-|
A|-0-|
D|-0-|

-Joester


Add a comment/correction

Complimentary Christian Ringtones
Dadamobile and CGR have teamed up to bring your favorite Christian artists right to your phone. Sign up today and get 10 complementary ringtones!
Tab Country
Did you know CGR has a sister site w/ country guitar tabs? Well we do! Its called Tab Country. It has a great archive with a lot of country tabs.
Rockin Tabs
Are you looking for a site that has rock guitar tabs? Then Rockintabs.com is the place for you. It is a budding site with many rock guitar tabs. Submit your tab today.
Tab Gallery
Tab Gallery has a compilation of christian, rock, and country tabs all in one place. Come visit us.