Guitar Tabs
song title    band name

Join Us Today!

Don't strum alone...
be a part of the largest online Christian music community. Browse thousands of guitar tabs and chat w/ musicians like yourself.


It's Free!

This tab has been rated a 5.00 out of 5 for accuracy. (2 votes)Sorry, but you must be logged in to rate this tab.
Click here to log-in, or you can click here to register.
(Registration is free)

All songs owned by corresponding publishing company. If you make copies of any song on this website, be sure to report your usage to CCLI.
Submitted by: SuperMonkey

Artist: Jars of Clay 
Song: Fly Farther
Album: The White Elephant Sessions
Tabbed by: Billy
Email: wdfourt@student.gc.maricopa.edu
Re-submitted by: Supermonkey*

This version is in standard (EADGBe) tuning.

intro:
---------0------------0----------------0-----------0-------------------
-----4-----4------4-----4---4------4-----4-----4-----4-----------------
---1---1-----1------1-----1------1---1-----1-----1-----1---------------
-----------------------------------------------------------------------
-2--------------2--------------0-------------0-------------------------
-----------------------------------------------------------------------

---------0------------0----------------0-------------------------------
-----4-----4------4-----4---4------4-----4-----------------------------
---1---1-----1------1-----1------1---1-----1---------------------------
-----------------------------------------------------------------------
-2--------------2------------------------------------------------------
-------------------------------2-------------2-------------------------

verse1:
-----------------------------------------------------------------------
---------0-----------0---------------0-----------0---------------------
-----------------------------------------------------------------------
-----2-----2-----2-----2---2-----2-----2-----2-----2---2---------------
---6---6-----6-----6-----6-----6---6-----6-----6-----6-----------------
-4-------------4-------------2-------------2---------------------------

---------0-----------4---------------0-------------0-------|-------0-------
-----0-----0-----0-----0---0-----0-----0-------4-----4-----|---4-----4---4-
-------------------------------1---1-----1---1---1-----1---|-----1-----1---
---2---2-----2-----2-----2---------------------------------|---------------
-0-------------0-------------4-------------2---------------|-2-------------
-----------------------------------------------------------|---------------
                              repeat to beginning of verse1^
chorus: (strumming)
     A9     C#m7    B     D2         A9     C     C#m7    F#m
-----0-------0------0-----0------|---0------0------0-------2-----------------
-----0-------0------0-----3------|---0------1------0-------2-----------------
-----2-------6------4-----2------|---2------0------6-------2-----------------
---2-2-------6------4-----0------|---2------2------6-------4-----------------
-0---0-------4------2------------|---0------3------4-------4-----------------
---------------------------------|-------------------------2-----------------
  (1st time only)repeat to verse1^

transition into verse3
---------0-----------0---------------0-----------0-------------------------
---------0-----------0---------------0-----------0-------------------------
---------------------------------------------------------------------------
-----2-----2-----2-----2---2-----2-----2-----2-----2---2-------------------
---6---6-----6-----6-----6-----6---6-----6-----6-----6---------------------
-4-------------4-------------2-------------2-------------------------------

---------0-----------0---------------0-------------0-----------0-----------
-----0---0-0-----0---0-0---0-----0---0-0-------4-----4-----4-----4---4-----
-------------------------------1---1-----1---1---1-----1-----1-----1-------
---2---2-----2-----2-----2-------------------------------------------------
-0-------------0-------------4-------------2-------------2-----------------
---------------------------------------------------------------------------

verse3: (same as 2 lines in verse1)

chorus: play whole line w/ no repeats

bridge:(strumming)
 E/G#   F#m    G     G2   G    C   Cm   Am    A  C#m7   F#    B
--0------2-----3-----3----3----0----3----0----0----4----2-------------0----
--0------2-----0-----0----0----1----4----1----2----5----2---------4--------
--1------2-----0-----2----0----0----5----2----2----4----3-----------4------
--2------4-----0-----0----0----2----5----2----2----6----4-------4----------
--2------4-----2-----2----2----3----3----0----0----4----4-----2------------
--4------2-----3-----3----3-----------------------------2------------------

verse4:
---------------------------------------------------------------------------
---------0-----------0---------------0-----------0-------------------------
---------------------------------------------------------------------------
-----2-----2-----2-----2---2-----2-----2-----2-----2---2-------------------
---6---6-----6-----6-----6-----6---6-----6-----6-----6---------------------
-4-------------4-------------2-------------2-------------------------------

---------0-----------4---------------0-------------0-----------0-----------
-----0-----0-----0-----0---0-----0-----0-------4-----4-----4-----4---4-----
-------------------------------1---1-----1---1---1-----1-----1-----1-------
---2---2-----2-----2-----2-------------------------------------------------
-0-------------0-------------4-------------2-------------2-----------------
---------------------------------------------------------------------------

---------0-----------0-----------
-----4-----4-----4-----4---4-----
---1---1-----1-----1-----1------- 
---------------------------------
-2-------------2-----------------
---------------------------------

---------------------------------------------------------------------------
---------0-----------0---------------0-----------0-------------------------
---------------------------------------------------------------------------
-----2-----2-----2-----2---2-----2-----2-----2-----2---2-------------------
---6---6-----6-----6-----6-----6---6-----6-----6-----6---------------------
-4-------------4-------------2-------------2-------------------------------

---------0-----------4---------------0-------------0-----------0-----------
-----0-----0-----0-----0---0-----0-----0-------4-----4-----4-----4---4-----
-------------------------------1---1-----1---1---1-----1-----1-----1-------
---2---2-----2-----2-----2-------------------------------------------------
-0-------------0-------------4-------------2-------------2-----------------
---------------------------------------------------------------------------

chorus: play 2x
     A9     C#m7    B     D2     A9     C     C#m7    F#m
-----0-------4------0-----0------0------0------4-------2-------------------
-----0-------5------0-----3------0------1------5-------2-------------------
-----2-------4------4-----2------2------0------4-------2-------------------
---2-2-------6------4-----0------2------2------6-------4-------------------
-0---0-------4------2------------0------3------4-------4-------------------
-------------------------------------------------------2-------------------

 E/G#  F#m   E/G#  F#m   E/G#  F#m   F#5  G#5   E
--0-----2-----0-----2-----0-----2-----x----x----0--------------------------
--0-----2-----0-----2-----0-----2-----x----x-----0-------------------------
--1-----2-----1-----2-----1-----2-----x----x------1------------------------
--2-----4-----2-----4-----2-----4-----4-s/-6-------2-----------------------
--2-----4-----2-----4-----2-----4-----4-s/-6--------2----------------------
--4-----2-----4-----2-----4-----2-----2-s/-4---------0---------------------

Song Format:
intro
Verse1
half chorus
Verse2
Chorus
trans
Verse3
Chorus
Bridge
Verse4
Chorus (2x)
outro

-------------------------------------------------------

Artist: Jars of Clay 
Song: Fly Farther
Album: The White Elephant Sessions
Tabbed by: ?
Re-submitted by: Supermonkey*

This version is in EABEBE tuning.

Intro 

E----------0------------0----------------0------------0-------- 
B------4-----4------4-----4---4------4-----4------4-----4---4-- 
E----4---4-----4------4-----4------4---4-----4------4-----4---- 
B--0-------------0--------------------------------------------- 
A--------------------------------0-------------0--------------- 
E-------------------------------------------------------------- 

E----------0------------0----------------0---------- 
B------4-----4------4-----4---4------4-----4-------- 
E----4---4-----4------4-----4------4---4-----4------ 
B--0-------------0---------------------------------- 
A--------------------------------------------------- 
E--------------------------------2-------------2---- 

B F#m Verses 

E----------------------------------------------------------------------- 
B----------0----------------0----------------0----------------0--------- 
E------0-----0---0------0-----0---0------0-----0---0------0-----0---0--- 
B----4---4-----4------4---4-----4------4---4-----4------4---4-----4----- 
A----------------------------------------------------------------------- 
E--4----------------4----------------2----------------2----------------- 

E F#m 

E----------0----------4-0----------0----------------0------|--------0--------- 
B------------0-----------------------0---0------4-----4----|----4-----4---4--- 
E------0------------0----------0-------0------4---4-----4--|------4-----4----- 
B----4---4--------4----------4---4----------0--------------|--0--------------- 
A--0------------0----------4-------------------------------|------------------ 
E----------------------------------------------------------|------------------ 

A C#m B 

Intro: E - A - B - F#m 

Verse 1: 

E F#m 

A C#m B 

E F#m 

A 

C#m B 

A - C#m - B - D 

Verse 2 (same as verse 1): 


Chorus: 

A C#m 

B D 

C#m C 

E F#m 

Verse 3 (same as verse 1):  

Chorus 

Bridge: E - F#m - G - C - A - C#m - F#m - B 

Repeat chorus 

E F#m E F#m E F#m E 

* I found these tabs on my computer from a few years ago. I noticed that
for some reason they weren't in the archive anymore (probably from when
the Jar's tabs were removed), so I'm re-submitting them now. Enjoy!

Comments about this tab

_Ed_ - 2005-08-09

I find it hard to play with standard tuning, so it better to play it with eBEBAE. Other than that its a great tab.


Add a comment/correction

Complimentary Christian Ringtones
Dadamobile and CGR have teamed up to bring your favorite Christian artists right to your phone. Sign up today and get 10 complementary ringtones!
Tab Country
Did you know CGR has a sister site w/ country guitar tabs? Well we do! Its called Tab Country. It has a great archive with a lot of country tabs.
Rockin Tabs
Are you looking for a site that has rock guitar tabs? Then Rockintabs.com is the place for you. It is a budding site with many rock guitar tabs. Submit your tab today.
Tab Gallery
Tab Gallery has a compilation of christian, rock, and country tabs all in one place. Come visit us.