Guitar Tabs
song title    band name

Join Us Today!

Don't strum alone...
be a part of the largest online Christian music community. Browse thousands of guitar tabs and chat w/ musicians like yourself.


It's Free!

This tab has been rated a 3.67 out of 5 for accuracy. (6 votes)Sorry, but you must be logged in to rate this tab.
Click here to log-in, or you can click here to register.
(Registration is free)

All songs owned by corresponding publishing company. If you make copies of any song on this website, be sure to report your usage to CCLI.
Submitted by: SCCdcTFreak

Artist:  Jars of Clay
Title:  Lonely People
Album:  Who We Are Instead
Lyrics and music:  Dan and Catherine L. Peek 
Re-arrangement by:  Dan Haseltine, Matt Odmark, Stephen Mason, and
Charlie Lowell

This is a song originally written back in the 70ís, which if youíve heard
the song really isnít a surprise just by the sound and the chord structure.
The original group to record this was a group named America Ė the dude
wrote this somewhere around a month before he married his long-lost love.
Itís a great song of encouragement to all of us singles out there.  This is
my first time to submit tabs to the site, but if you have any questions,
just e-mail strumminminister@yahoo.com Ė also, on CGR Iím known as SCCdcTFreak.

In Him,
Ü <>< Stephen

Verse

G   Bm  
G   Bm  D  
C   D   G  Em7    
C   D   G

Chorus
G   C   C/B  Am7           
G   C   C/B  Am7
G   C   C/B  Am7 D    G


The song goes:  Verse 1, Verse 2, Chorus, Verse 1, Verse 2, and Chorus twice.
I believe, it does at least Ė I donít quite have the cd in front of me right
now, but Iím pretty sure about it.

Comments about this tab

jstush04@aol - 2004-04-07

i believe the verse goes G Em7 Bm (played x20230) G Em7 Bm Dsus C2 D/F# G Dsus/F# Em7 G Dsus


Mathijs - 2004-05-11

the original version is tabbed [URL=http://kingbiscuit.com/america/cord/cord038.htm]here[/URL] some minor lyric changes are needed, but if you listen to the song you'll find that out soon enough. the best thing is that you have the lyrics to go with the chords :)


Mathijs - 2004-05-11

sorry i didnt know that the code did not work here :$.
anyhow this is the link: http://kingbiscuit.com/america/cord/cord038.htm


zevian - 2004-05-18

Intro-Tab
Play it at the same time...
Gtr_1 [x2]
E------------------0-0-0-0-0-------|-----------------------2-2-----3-3-----3--|
B----3------0------1-1-1-1-1-------|----3-3---3-3---3-3----3-3-----3-3-----3--|
G----0-----0-------2-2-2-2-2-------|----0-0---0-0---2-2----2-2-----0-0-----0--|
D---2-----0------2----2---2--------|----2-2---0-0---2-2----0-0----0--0-----0--|
A-3------2-----0--------------0--2-|--3-----2-----0------------------------2--|
E----------------------------------|---------------------2------3-------3--3--|

Gtr_2 0 then 3 [x2]
E-----------------------(*)--------|----------------------------------------|
B-------------------1-----1-1------|----------------------------------------|
G----0------0--------2-----2-------|------0-----0-----0------0-------0----0-|
D---2------0------2---2------------|----2-----0-----2------0-------0------0-|
A-3------2------0-------------0--2-|--3-----2-----0-----------------------2-|
E----------------------------------|---------------------2------3------3--3-|

(*) at first time play e---0--
2nd time use e---3--


raiderush99 - 2004-12-26

close close close....but not quite there...i would put in the correction but i dont feel like it :-)


Add a comment/correction

Complimentary Christian Ringtones
Dadamobile and CGR have teamed up to bring your favorite Christian artists right to your phone. Sign up today and get 10 complementary ringtones!
Tab Country
Did you know CGR has a sister site w/ country guitar tabs? Well we do! Its called Tab Country. It has a great archive with a lot of country tabs.
Rockin Tabs
Are you looking for a site that has rock guitar tabs? Then Rockintabs.com is the place for you. It is a budding site with many rock guitar tabs. Submit your tab today.
Tab Gallery
Tab Gallery has a compilation of christian, rock, and country tabs all in one place. Come visit us.