Guitar Tabs
song title    band name

Join Us Today!

Don't strum alone...
be a part of the largest online Christian music community. Browse thousands of guitar tabs and chat w/ musicians like yourself.


It's Free!

This tab has been rated a 3.33 out of 5 for accuracy. (3 votes)Sorry, but you must be logged in to rate this tab.
Click here to log-in, or you can click here to register.
(Registration is free)

All songs owned by corresponding publishing company. If you make copies of any song on this website, be sure to report your usage to CCLI.
Submitted by: axeman7

Song title:Lady
Band:Stryper
Album:Against the Law

|------------------------------------------------------------------------
|-----------------b-9-br-------b-9-br---------b--------------------------
|--------h--6---6-8---8-6-8--6-8---8-6--8-6---6--p-----------------------
|----h--6-8---8--------p------------p-------8-6-8-6--------h-------------
|-4/6-8---------------------------------------------8-6-4-4-6-4----------
|------------------------------------------------------------------------
   p
|-9-6--p-------p------------------------------------------------------
|-----9-6--p--9-6--p--------------------------------------------------
|---------8-6-----8-6--p---h------------------------------------------
|---------------------8-6-6-8-6---6-----------------------------------
|-------------------------------6---6---------------------------------
|---------------------------------------------------------------------

|-----6--p-----------------------------------------------------------
|-b-6---9-6--p-------------------------------------------------------
|-8---------8-6--h---------------------------------------------------
|---------------6-8--h---h-------------------------------------------
|-------------------8-9-6-8-4----------------------------------------
|--------------------------------------------------------------------


That's main jiff of it.  i'm pretty sure most of it is write besides some
parts on the second measure.  i'll have the last solo tabbed out soon.  it's
not too difficult i know some of the parts just have to put them together.
email me at sphincterboy73@yahoo.com for any help or comments. 

Comments about this tab

Guitar spaz - 2005-03-01

This is awsome, try and get the whole song, that would be awsome!


Da Flufsta - 2006-01-18

this is a great tab I can't believe someone gave it less then 5


Add a comment/correction

Complimentary Christian Ringtones
Dadamobile and CGR have teamed up to bring your favorite Christian artists right to your phone. Sign up today and get 10 complementary ringtones!
Tab Country
Did you know CGR has a sister site w/ country guitar tabs? Well we do! Its called Tab Country. It has a great archive with a lot of country tabs.
Rockin Tabs
Are you looking for a site that has rock guitar tabs? Then Rockintabs.com is the place for you. It is a budding site with many rock guitar tabs. Submit your tab today.
Tab Gallery
Tab Gallery has a compilation of christian, rock, and country tabs all in one place. Come visit us.