Guitar Tabs
song title    band name

Join Us Today!

Don't strum alone...
be a part of the largest online Christian music community. Browse thousands of guitar tabs and chat w/ musicians like yourself.


It's Free!

This tab has been rated a 1.57 out of 5 for accuracy. (7 votes)Sorry, but you must be logged in to rate this tab.
Click here to log-in, or you can click here to register.
(Registration is free)

All songs owned by corresponding publishing company. If you make copies of any song on this website, be sure to report your usage to CCLI.
Submitted by: TreborF7

Song: No One Like You
Artist: David Crowder Band
C.D.: Illuminate
Words and Music: David Crowder Band
Tabbed By: Robbie Forrest

this is a tab of the intro

e|------------------------|
B|-22222-2-2-2-2--2-2-2-2-|
G|-------1-3-4-3--4-3-4-3-|
D|------------------------|
A|------------------------|
E|------------------------|

Comments about this tab

TreborF7 - 2004-05-23

this is almost right but after i saw them in concert its this:
capo 1st fret
e|--------------------------|
B|-1-1-1-1------------------|
G|----------0-2-3p2-3p2-3p2-|
D|--------------3---3---3---|
A|--------------------------|
E|--------------------------|

Robbie


rcman - 2005-01-11

g string 77777 54545


fruitbooter344 - 2005-02-28

no no no its
E------------------
B-2-2-2222-22-22-22
G----------44-33-44
D------------------
A------------------
E------------------


rcman - 2005-04-26

my guitar teacher tabbed this intro for me


thesean19 - 2005-11-06

on the G string it's 7777 00 54545


thesean19 - 2005-11-06

on the G string it's 7777 00 54545 don't forget to tune down your guitar a 1/2 step


mmmthasgood1 - 2006-01-16

we really need to get crowder himself in here :)


hitinhard13 - 2006-01-19

i think its ddd g cbcb on 2nd and 3rd string


hitinhard13 - 2006-02-10

----------- i think thats it god bless
-333-1010--
----0------
-----------
-----------
-----------


PRZ Band - 2007-01-26

this isnt the way they play it, but it works just as great

E-10-10-101010-8-88-788-10----
B-8--8--888----8-88-888-8-----
G-0--0--000----0-00-000-0-----
D-x---------------------------
A-x---------------------------
E-x---------------------------


Add a comment/correction

Complimentary Christian Ringtones
Dadamobile and CGR have teamed up to bring your favorite Christian artists right to your phone. Sign up today and get 10 complementary ringtones!
Tab Country
Did you know CGR has a sister site w/ country guitar tabs? Well we do! Its called Tab Country. It has a great archive with a lot of country tabs.
Rockin Tabs
Are you looking for a site that has rock guitar tabs? Then Rockintabs.com is the place for you. It is a budding site with many rock guitar tabs. Submit your tab today.
Tab Gallery
Tab Gallery has a compilation of christian, rock, and country tabs all in one place. Come visit us.