Guitar Tabs
song title    band name

Join Us Today!

Don't strum alone...
be a part of the largest online Christian music community. Browse thousands of guitar tabs and chat w/ musicians like yourself.


It's Free!

This tab has been rated a 4.83 out of 5 for accuracy. (6 votes)Sorry, but you must be logged in to rate this tab.
Click here to log-in, or you can click here to register.
(Registration is free)

All songs owned by corresponding publishing company. If you make copies of any song on this website, be sure to report your usage to CCLI.
Submitted by: scheller

Cannonball
Five Iron Frenzy
Album: THE END IS NEAR
Copyright 2003 5 Minute Walk Records

Words by Reese Roper
Music by Dennis Culp, Leanor Ortega, and Reese Roper

Tabbed by scheller  (sonnyschell@hotmail.com)
Get the powertab for the song here:
http://www.christianguitar.org/forums/showthread.php?t=61549

A5	577xxx
B5	799xxx
D5	x577xx
A/C#	x47xxx
E5	x799xx
g5	x 10 12 12 x x
C#5 	x466xx
G#5	466xxx
G5	355xxx
C#	x4x6xx
F#5	244xxx
F#	244322
F#sus4	244422
A	x02220
E	022100
C#5/G#	446xxx

 Intro
  Gtr I ("/"s represent chord strokes) 
    A5  B5                     A5  B5
    /    / / / / / / / / /     /    / / / / / / / / /
  Gtr II
|-----|--------------------------|-------------------------||
|-----|--------------------------|-------------------------||
|---6-|-/8-8-8-8-8-8-8-8-8\----6-|-/8-8-8-8-8-8-8-8-8\-----||
|-----|--------------------------|-------------------------||
|---4-|-/6-6-6-6-6-6-6-6-6\----4-|-/6-6-6-6-6-6-6-6-6\-----||
|-----|--------------------------|-------------------------||


 Verse 
  B5         D5    A/C# E5        D5   g5      D5
  / (slide down)                                        2x
|-------------------------|------------------------------|
|-------------------------|------------------------------|
|------------7--7-------9-|-9-x-x-7-7--12-12-x-----------|
|-9-9-x-7-7--7--7--7-7--9-|-9-x-x-7-7--12-12-x-12-12-x-x-|
|-9-9-x-7-7--5--5--4-4--7-|-7-x-x-5-5--10-10-x-12-12-x-x-|
|-7-7-x-5-5---------------|--------------------10-10-x-x-|


 Gtr II plays that again 2x over:
||--------------------------------------------------|
||o-------------------------------------------------|
||--------11-11-14-14-------------14-14-------14-14-|
||---9-12-------------11-11-12-12-------11-11-------|
||o-------------------------------------------------|
||--------------------------------------------------|

|----------------------------------------------||
|---------------------------------------------o||
|----------------------------------------------||
|-------9-9-12-12------------12-12------12-12--||
|--7-10-----------9--9-10-10-------9--9-------o||
|----------------------------------------------||


 Pre-Chorus
    A5               C#5   G#5    A5               E5      B5
    / / / / / / / /  / /   / /    / / / / / / / /   /  /   / /
    Gtr I
||------------------------------|---------------------------------||
||o-----------------------------|--------------------------------o||
||--6-6-6-6-6-6-6-6--6-6---4-4--|-6-6-6-6-6-6-6-6--13-13---8-8----||
||------------------------------|---------------------------------||
||o-4-4-4-4-4-4-4-4--4-4-0-2-2--|-4-4-4-4-4-4-4-4--11-11-0-6-6---o||
||------------------------------|---------------------------------||


 Chorus 1
  E5
   /     /  /  /  /  /  /  /  /  /  /  /  /  /  /
|-------------------------------------------------|
|-------------------------------------------------|
|-13-13-13-13-13-13-13-13-13-13-13-13-13-14-16-16-|
|-------------------------------------------------|
|-11-11-11-11-11-11-11-11-11-11-11-11-11-12-14-14-|
|-------------------------------------------------|

  B5
   /  /  /  /  /  /  /  /  /  /  /  /  /  /  /  /
|-------------------------------------------------|
|-------------------------------------------------|
|-11-11-11-11-11-11-11-11-11-11-11-11-11-11-11-11-|
|-------------------------------------------------|
|--9--9--9--9--9--9--9--9--9--9--9--9--9--9--9--9-|
|-------------------------------------------------|

  G5
   /  /  /  /  /  /  /  /  /  /  /  /  /  / / /
|-----------------------------------------------|
|-----------------------------------------------|
|-12-12-12-12-12-12-12-12-12-12-12-12-12-11-9-9-|
|-----------------------------------------------|
|-10-10-10-10-10-10-10-10-10-10-10-10-10--9-7-7-|
|-----------------------------------------------|
                                   
  D5                                           C#
   /  /  /  /  /  /  /  /  /  /  /  /  /  /  / /
|------------------------------------------------||
|------------------------------------------------||
|-11-11-11-11-11-11-11-11-11-11-11-11-11-11-11---||
|------------------------------------------------||
|--9--9--9--9--9--9--9--9--9--9--9--9--9--9--9-7-||
|----------------------------------------------5-||

 Play Intro again
 Play Verse and Pre-Chorus, then:

 Chorus 2
    E5
     /  /  /  /  /  /  /  /  /  /  /  /  /  /  /  /
||--------------------------------------------------|
||o-------------------------------------------------|
||--13-13-13-13-13-13-13-13-13-13-13-13-13-14-16-16-|
||--------------------------------------------------|
||o-11-11-11-11-11-11-11-11-11-11-11-11-11-12-14-14-|
||--------------------------------------------------|

  B5
   /  /  /  /  /  /  /  /  /  /  /  /  /  /  /  /
|-------------------------------------------------|
|-------------------------------------------------|
|-11-11-11-11-11-11-11-11-11-11-11-11-11-11-11-11-|
|-------------------------------------------------|
|--9--9--9--9--9--9--9--9--9--9--9--9--9--9--9--9-|
|-------------------------------------------------|

  G5                                              
   /  /  /  /  /  /  /  /  /  /  /  /  /  / / /  
|-----------------------------------------------|
|-----------------------------------------------|
|-12-12-12-12-12-12-12-12-12-12-12-12-12-11-9-9-|
|-----------------------------------------------|
|-10-10-10-10-10-10-10-10-10-10-10-10-10--9-7-7-|
|-----------------------------------------------| 

  D5
   /  /  /  /  /  /  /  /  /  /  /  /  /  /  /  /  2x
|--------------------------------------------------||
|-------------------------------------------------o||
|-11-11-11-11-11-11-11-11-11-11-11-11-11-11-11-11--||
|--------------------------------------------------||
|--9--9--9--9--9--9--9--9--9--9--9--9--9--9--9--9-o||
|--------------------------------------------------||


 Breakdown
  Gtr I
  F#5                 F#sus4        F#       F#sus4        
  /
|-2-------------2-2-2-2-2-2-2-2-2-|-2--2-2-2-2-2-2-2-2-2-2-|
|---2-----------2-2-2-2-2-2-2-2-2-|-2--2-2-2-2-2-2-2-2-2-2-|
|-----3---------3-3-3-4-4-4-4-4-4-|-3--3-3-3-4-4-4-4-4-4-4-|
|-------4-------4-4-4-4-4-4-4-4-4-|-4--4-4-4-4-4-4-4-4-4-4-|
|---------4-----4-4-4-4-4-4-4-4-4-|-4--4-4-4-4-4-4-4-4-4-4-|
|---------------2-2-2-2-2-2-2-2-2-|-2--2-2-2-2-2-2-2-2-2-2-|

    F#       F#sus4          F#       F#sus4
||--2--2-2-2-2-2-2-2-2-2-2-|-2--2-2-2-2-2-2-2-2-2-|
||o-2--2-2-2-2-2-2-2-2-2-2-|-2--2-2-2-2-2-2-2-2-2-|
||--3--3-3-3-4-4-4-4-4-4-4-|-3--3-3-3-4-4-4-4-4-4-|
||--4--4-4-4-4-4-4-4-4-4-4-|-4--4-4-4-4-4-4-4-4-4-|
||o-4--4-4-4-4-4-4-4-4-4-4-|-4--4-4-4-4-4-4-4-4-4-|
||--2--2-2-2-2-2-2-2-2-2-2-|-2--2-2-2-2-2-2-2-2-2-|

1st and 2nd ending:
   A                           E                                
|--0---0-0-0--0--0-0-0-0-0-0-|-0----------0--0-0-0-0-0-0-0-0----||
|--2---2-2-2--2--2-2-2-2-2-2-|-0----------0--0-0-0-0-0-0-0-0---o||
|--2---2-2-2--2--2-2-2-2-2-2-|-1----------1--1-1-1-1-1-1-1-1----||
|--2---2-2-2--2--2-2-2-2-2-2-|-2----------2--2-2-2-2-2-2-2-2----||
|--0---0-0-0--0--0-0-0-0-0-0-|-2----------2--2-2-2-2-2-2-2-2---o||
|----------------------------|-0----------0--0-0-0-0-0-0-0-0----||
|
| Gtr IV
|------0---------------------|-0--------------------------------||
|----2---0-------------------|---0-----------------------------o||
|--2-------------------------|-----1----------------------------||
|--2-------------------------|-------2--------------------------||
|----------------------------|---------2-----------------------o||
|----------------------------|----------------------------------||

  3rd ending:
  A (for 2 bars)    E (for 2 bars), then:

  F#                C#
|-----2---2---2---|--------------------||
|---2---2---2---2-|-----6---6----6-----||
|-----------------|---6---6----6----6--||
|-4---------------|--------------------||
|-----------------|-4------------------||
|-----------------|--------------------||


 Outro
                     1st-3rd endings    4th ending
    F#5     C#5/G#    A5      E5  B5      A5      E5    B5
                                       4x
||------------------|------------------||----------------------|
||o-----------------|-----------------o||----------------------|
||------------------|---------9-9------||---------x-x-9--------|
||--4-4-4-4-6-6-6-6-|-7-7-7-7-9-9-9-9--||-7-7-7-7-x-x-9-x-x-9--|
||o-4-4-4-4-4-4-4-4-|-7-7-7-7-7-7-9-9-o||-7-7-7-7-x-x-7-x-x-9--|
||--2-2-2-2-4-4-4-4-|-5-5-5-5-----7-7--||-5-5-5-5-------x-x-7--|

    F#5     C#5/G#    A5      E5  B5      F#5
                                       4x
||------------------|------------------||----------|
||o-----------------|-----------------o||----------|
||------------------|---------9-9------||----------|
||--4-4-4-4-6-6-6-6-|-7-7-7-7-9-9-9-9--||-4--------|
||o-4-4-4-4-4-4-4-4-|-7-7-7-7-7-7-9-9-o||-4--------|
||--2-2-2-2-4-4-4-4-|-5-5-5-5-----7-7--||-2--------|


If you don't understand what those 1st, 2nd endings mean:
||o - repeat start
o|| - repeat end
when you come to a 1st ending, you play it then go back to the start of the
section and instead of playing the 1st ending again, play the 2nd and so on.

Generated using Power Tab Editor by Brad Larsen - http://www.power-tab.net

Comments about this tab

kronoseal - 2005-05-24

hey, great job, it sounds awesome, but I don't really get the 1st 2nd 3rd 4th ending stuff, could you explain it to me? o r maybe posting the lyrics with it would help too


Add a comment/correction

Complimentary Christian Ringtones
Dadamobile and CGR have teamed up to bring your favorite Christian artists right to your phone. Sign up today and get 10 complementary ringtones!
Tab Country
Did you know CGR has a sister site w/ country guitar tabs? Well we do! Its called Tab Country. It has a great archive with a lot of country tabs.
Rockin Tabs
Are you looking for a site that has rock guitar tabs? Then Rockintabs.com is the place for you. It is a budding site with many rock guitar tabs. Submit your tab today.
Tab Gallery
Tab Gallery has a compilation of christian, rock, and country tabs all in one place. Come visit us.