Guitar Tabs
song title    band name

Join Us Today!

Don't strum alone...
be a part of the largest online Christian music community. Browse thousands of guitar tabs and chat w/ musicians like yourself.


It's Free!

This tab has been rated a 4.00 out of 5 for accuracy. (1 vote)Sorry, but you must be logged in to rate this tab.
Click here to log-in, or you can click here to register.
(Registration is free)

All songs owned by corresponding publishing company. If you make copies of any song on this website, be sure to report your usage to CCLI.
Submitted by: BassP86

Song: Hey June
Artist: East West
Album: Vintage
Tuning: Drop-D
Submitted by: BassP86

On the Vintage album, East West actually plays in regular Drop-D tuning.
So, it's easier to play without tuning your whole guitar down 2 1/2 steps.
This is a beautiful love song, so I hope this tab helps out. Oh, by the way
I didn't put how many times you play each chords, just one chord at a time.

\=slide up
/=slide down
~=let it ring
*=harmonic

Intro-clean(x2):
e/----------------|
B/----------------|
G/-11--14--14--14-|
D/--x---x---x---x-|
A/--9--12--12--12-|
D/----------0---0-|

2nd time play this:
e/----------------------------|
B/----------------------------|
G/-11--14--7~~~~~~~~~~~~~~~~~-|
D/--x---x--x------------------|
A/--9--12--5~~~~~~~~~~~~~~~~~-|
D/---------0~~~~~~~~~~~~~~~~~-|

Verse-clean(x2):
1st half of intro

Bridge-clean(Cuz' life was meant to be....):
e/-------------------------|
B/-------------------------|
G/-11--9--7~~~~~~~~~~~~~~~-|
D/--x--x--x----------------|
A/--9--7--5~~~~~~~~~~~~~~~-|
D/--------0~~~~~~~~~~~~~~~-|

Chorus-heavily distorted(x2):
e/----------------------------------|
B/----------------------------------|
G/-14--13--14--13----14--13--14--13-|
D/-14--13--14--13----14--13--14--13-|
A/-12--11--12--11----12--11--12--11-|
D/--------------------0---0---0---0-|

Bridge-heavily distorted:
e/------------------------|
B/------------------------|
G/-11--9--7~~~~~~~~~~~~~~-|
D/-11--9--7~~~~~~~~~~~~~~-|
A/--9--7--5~~~~~~~~~~~~~~-|
D/--------0~~~~~~~~~~~~~~-|

Verse-clean(a little feedback in the beginning, & later play this):
e/--------------------------------------------------------|
B/--------------------------------------------------------|
G/--------------------------------------------------------|
D/-----------------------------7*----------------------7*-|
A/-----------------7*----9*----------------7*----9*-------|
D/-----------7*----------------------7*-------------------|

Bridge(lead instead of rhythm):
e/----------------------------------------------|
B/----------------------------------------------|
G/------11-----------9------7~~~~~~~~~~~~~~~~~~-|
D/---11----11------9---9----7~~~~~~~~~~~~~~~~~~-|
A/-9-------------7----------5~~~~~~~~~~~~~~~~~~-|
D/--------------------------0~~~~~~~~~~~~~~~~~~-|

Chorus-distorted(x3)

Bridge(x1)

I don't know what the solo is,
but the fill is the chorus line played 4 times.

Chorus(x3)

Bridge(x1)

The outro is just the bass and drums. And that's about it. If you want to
tell me anything about what you think of this tablature, my e-mail is
BassP86@hotmail.com

Comments about this tab

No comments/corrections found. Add your own

Complimentary Christian Ringtones
Dadamobile and CGR have teamed up to bring your favorite Christian artists right to your phone. Sign up today and get 10 complementary ringtones!
Tab Country
Did you know CGR has a sister site w/ country guitar tabs? Well we do! Its called Tab Country. It has a great archive with a lot of country tabs.
Rockin Tabs
Are you looking for a site that has rock guitar tabs? Then Rockintabs.com is the place for you. It is a budding site with many rock guitar tabs. Submit your tab today.
Tab Gallery
Tab Gallery has a compilation of christian, rock, and country tabs all in one place. Come visit us.