Guitar Tabs
song title    band name

Join Us Today!

Don't strum alone...
be a part of the largest online Christian music community. Browse thousands of guitar tabs and chat w/ musicians like yourself.


It's Free!

This tab has been rated a 5.00 out of 5 for accuracy. (3 votes)Sorry, but you must be logged in to rate this tab.
Click here to log-in, or you can click here to register.
(Registration is free)

All songs owned by corresponding publishing company. If you make copies of any song on this website, be sure to report your usage to CCLI.
Submitted by: scheller

See the Flames Begin to Crawl
Five Iron Frenzy
Album: THE END IS NEAR

Words by Reese RoperMusic by Micah, Dennis and Reese

Tabbed by scheller  (sonnyschell@hotmail.com)
You can get the powertab for the song here:
http://www.christianguitar.org/forums/showthread.php?t=61549
or at www.powertabs.net

Am	577555
Dm	x57765
E	x79997
GVII	xxx787           
C 	x35553
G 	355433
F 	133211
C5	x35xxx
G5	35xxxx
F5	13xxxx
A5	57xxxx
E5	02xxxx
                                    

 Intro Riff
  Gtr II
    Am              Dm      E        Am              Dm      E        4x
||--x-x-5---x-x-5------------------|-x-x-5---x-x-5-----------x-x-7-7--||
||o-x-x-5---x-x-5---x-x-6---x-x-9--|-x-x-5---x-x-5---x-x-6---x-x-8-8-o||
||--x-x-5---x-x-5---x-x-7---x-x-9--|-x-x-5---x-x-5---x-x-7---x-x-7-7--||
||------------------x-x-7---x-x-9--|-----------------x-x-7------------||
||o--------------------------------|---------------------------------o||
||---------------------------------|----------------------------------||
|
|  Gtr I                                                              4x
||---------------------------------|----------------------------------||
||o--------------------------------|---------------------------------o||
||---------------------------------|----------------------------------||
||------------------3---2-0-2---0--|-----------------3---2-0-3/5-5----||
||o-0---0h2-3---2p0----------------|-0---0h2-3---2p0-----------------o||
||---------------------------------|----------------------------------||


 Verse
    C             G               Am            F               4x
||----------------x-x-3--x-x-3--|-x-x-5--x-x-5--x-x-1--x-x-1----||
||o-x-x-5--x-x-5--x-x-3--x-x-3--|-x-x-5--x-x-5--x-x-1--x-x-1---o||
||--x-x-5--x-x-5--x-x-4--x-x-4--|-x-x-5--x-x-5--x-x-2--x-x-2----||
||--x-x-5--x-x-5----------------|-------------------------------||
||o-----------------------------|------------------------------o||
||------------------------------|-------------------------------||

  C              G                 Am             F
|----------------x-x-3---x-x-3---|-x-x-5---x-x-5--x-x-1---x-x-1---|
|-x-x-5---x-x-5--x-x-3---x-x-3---|-x-x-5---x-x-5--x-x-1---x-x-1---|
|-x-x-5---x-x-5--x-x-4---x-x-4---|-x-x-5---x-x-5--x-x-2---x-x-2---|
|-x-x-5---x-x-5------------------|--------------------------------|
|--------------------------------|--------------------------------|
|--------------------------------|--------------------------------|
|
| Gtr I
|--------------------------------|--------------------------------|
|--------------------------------|--------------------------------|
|--------------------------------|--------------------------------|
|-2---2h3-2p0-2--2---2h3-2p0-2p0-|-2---2h3-2p0-2--2p0-------------|
|--------------------------------|--------------------3p2-3p2-0h2-|
|--------------------------------|--------------------------------|

  C              G                 Am              
|----------------x-x-3---x-x-3---|-x-x-5---x-x-5---------------------|
|-x-x-5---x-x-5--x-x-3---x-x-3---|-x-x-5---x-x-5---------------------|
|-x-x-5---x-x-5--x-x-4---x-x-4---|-x-x-5---x-x-5---10---10---9---7---|
|-x-x-5---x-x-5------------------|-----------------------------------|
|--------------------------------|------------------8----8---7---5---|
|--------------------------------|-----------------------------------|
|
|--------------------------------|-----------------------------------|
|--------------------------------|-----------------------------------|
|--------------------------------|-----------------------------------|
|-2---2h3-2p0-2--2---2h3-2p0-2p0-|-2---2h3-2p0-2p0--2p0--------------|
|--------------------------------|-----------------------3p2-3p2-0h2-|
|--------------------------------|-----------------------------------|
|
| Gtr III
|--------------------------------|-----------------------------------|
|-1---1h3-1p0-1--0---0h1---------|-0---0h1---------------------------|
|------------------------4p2-4---|---------4p2-2p0--2p0--------------|
|--------------------------------|-----------------------3p2-2p0-----|
|--------------------------------|-------------------------------3p2-|
|--------------------------------|-----------------------------------|


 Chorus Riff
    C5       G5         C5       F5 G5  2x
||--------------------|-----------------||
||o-------------------|----------------o||
||--------------------|-----------------||
||--5--5-5-5----------|-5--5-5-5--------||
||o-3--3-3-3-5--5-5-5-|-3--3-3-3-3--5--o||
||-----------3--3-3-3-|----------1--3---||


 Play Intro Riff twice
 Play Verse
 Play Chorus Riff 4x


 Bridge
|---------|---------------|
|---------|-------x-x-x-x-|
|--rest---|-------x-x-x-x-|
|---7-----|-------x-x-x-x-|
|--bars---|---------------|
|---------|---------------|

 Gtr II
  A5 ("/"s represent chord strums)
   /  /  /  /  /  /  /  /  /  /  /  /  / / / /
 Gtr I
|---------------------------------------------|
|-10-10-10-10-10-10-10-10-10-10-10-10-12--13--|
|---------------------------------------------|
|--7--7--7--7--7--7--7--7--7--7--7--7--9--10--|
|---------------------------------------------|
|---------------------------------------------|

  G5
   /  /  /  /  /  /  /  /  /  /  /  /  / / / /
|---------------------------------------------|
|-------------------------12-12-12-12-12--13--|
|-12-12-12-12-12-12-12-12---------------------|
|--------------------------9--9--9--9--9--10--|
|-10-10-10-10-10-10-10-10---------------------|
|---------------------------------------------|

  F5
   /  /  /  /  /  /  /  /  /  /  /  /  / / / /
|---------------------------------------------|
|-------------------------12-12-12-12-12--13--|
|-10-10-10-10-10-10-10-10---------------------|
|--------------------------9--9--9--9--9--10--|
|--8--8--8--8--8--8--8--8---------------------|
|---------------------------------------------|

  E5              G5
  / / / / / / / / / / / / / / / /
|---------------------------------|
|-----------------8-8-8-8-8-8-8-8-|
|-9-9-9-9-9-9-9-9-----------------|
|-----------------5-5-5-5-5-5-5-5-|
|-7-7-7-7-7-7-7-7-----------------|
|---------------------------------|

  A5
   /  /  /  /  /  /  /  /  /  /  /  /  / / / /
|---------------------------------------------|
|-10-10-10-10-10-10-10-10-12-12-12-12-12--13--|
|---------------------------------------------|
|--7--7--7--7--7--7--7--7--9--9--9--9--9--10--|
|---------------------------------------------|
|---------------------------------------------|

  G5
   /  /  /  /  /  /  /  /  /  /  /  / / / / /
|-12-12-12-12-12-12-12-12-10-10-10-10-8-8-8-8-|
|---------------------------------------------|
|--9--9--9--9--9--9--9--9--7--7--7--7-5-5-5-5-|
|---------------------------------------------|
|---------------------------------------------|
|---------------------------------------------|

  F5
   /  /  /  /  /  /  /  /  /  /  /  /  /  /  /  /
|-13-13-13-13-13-13-13-13-12-12-12-12-10-10-10-10-|
|-------------------------------------------------|
|-10-10-10-10-10-10-10-10--9--9--9--9--7--7--7--7-|
|-------------------------------------------------|
|-------------------------------------------------|
|-------------------------------------------------|

  E5                      G5
   /  /  /  /  /  /  /  /  /  /  /  /  /  /  /  /
|-15-15-15-15-15-15-15-15-15-15-15-15-15-15-15-15-|
|-------------------------------------------------|
|-12-12-12-12-12-12-12-12-12-12-12-12-12-12-12-12-|
|-------------------------------------------------|
|-------------------------------------------------|
|-------------------------------------------------|

    E5                        
    /           /             /
||--------------------------|------------------------------||
||o-------------------------|-----------------------------o||
||--------------------------|------------------------------||
||--2-2h3-2p0-2-2-2h3-2p0-2-|-2-2h3-2p0-2-2p0--------------||
||o-------------------------|-----------------3p2-3p2-0h2-o||
||--------------------------|------------------------------||


 Out-Chorus
    C5       G5         C5       F5 G5     C5
                                        4x
||--------------------|-----------------||----------*|
||o-------------------|----------------o||----------*|
||--------------------|-----------------||----------*|
||--5--5-5-5----------|-5--5-5-5--------||-5--------*|
||o-3--3-3-3-5--5-5-5-|-3--3-3-3-3--5--o||-3--------*|
||-----------3--3-3-3-|----------1--3---||----------*|


Generated using Power Tab Editor by Brad Larsen - http://www.power-tab.net

Comments about this tab

No comments/corrections found. Add your own

Complimentary Christian Ringtones
Dadamobile and CGR have teamed up to bring your favorite Christian artists right to your phone. Sign up today and get 10 complementary ringtones!
Tab Country
Did you know CGR has a sister site w/ country guitar tabs? Well we do! Its called Tab Country. It has a great archive with a lot of country tabs.
Rockin Tabs
Are you looking for a site that has rock guitar tabs? Then Rockintabs.com is the place for you. It is a budding site with many rock guitar tabs. Submit your tab today.
Tab Gallery
Tab Gallery has a compilation of christian, rock, and country tabs all in one place. Come visit us.