Guitar Tabs
song title    band name

Join Us Today!

Don't strum alone...
be a part of the largest online Christian music community. Browse thousands of guitar tabs and chat w/ musicians like yourself.


It's Free!

This tab has been rated a 4.00 out of 5 for accuracy. (1 vote)Sorry, but you must be logged in to rate this tab.
Click here to log-in, or you can click here to register.
(Registration is free)

All songs owned by corresponding publishing company. If you make copies of any song on this website, be sure to report your usage to CCLI.
Artist-Eloi
Song-Looking Christian 
Copywrite-1999 Eloi and Cross Rhythms Music

Send all questions and comments to: bigpigman@hotmail.com

Note:  Tune guitars down 1 1/2 steps


Intro:
--------------------------------   (4x)
--------------------------------
--------------------------------
---9---9---8/9\8----------------
---7---7---6/7\6--10--9--5--4---
-0---0------------8---7--3--2---

-----------------                       --------------
-----------------                       --------------
----------------- every fourth time add --------------
----4-3----------                       --------------
-2--2-1-2xxxxx---                       --------------
-0------0xxxxx---                       -0-2-3-0-2-3--





Chorus and Verse:
-----------
-----------
-----------
-----------  (palm mute according to cd)
--5/77777--
--3/55555--

After chorus:
------------                   -----------
------------                   -----------
------------                   -----------
------------ every third time  -----------
-2-4-2xxx---                   -2-4-2-5---
-0-2-0xxx---                   -0-2-0-3---



Bridge(clean):
 ----
 -6--
 -6--  (play many times)
 -6--  
 -4--
 ----
(not really sure about this part)


Bridge(distortion): same as chorus

After bridge:

------------                   -----------
------------                   -----------
------------                   -----------
------------ every third time  -----------
-2-4-2xxx---                   -2-4-2-5---
-0-2-0xxx---                   -0-2-0-3---

Jeremy's Christian Rock World:
http://window.to/jesus

Comments about this tab

bkheloi - 2004-04-11

The guitars are drop C
"D tune with low string to C"


Add a comment/correction

Complimentary Christian Ringtones
Dadamobile and CGR have teamed up to bring your favorite Christian artists right to your phone. Sign up today and get 10 complementary ringtones!
Tab Country
Did you know CGR has a sister site w/ country guitar tabs? Well we do! Its called Tab Country. It has a great archive with a lot of country tabs.
Rockin Tabs
Are you looking for a site that has rock guitar tabs? Then Rockintabs.com is the place for you. It is a budding site with many rock guitar tabs. Submit your tab today.
Tab Gallery
Tab Gallery has a compilation of christian, rock, and country tabs all in one place. Come visit us.