Guitar Tabs
song title    band name

Join Us Today!

Don't strum alone...
be a part of the largest online Christian music community. Browse thousands of guitar tabs and chat w/ musicians like yourself.


It's Free!

eLi - God Weeps Too

This tab has not yet been rated for accuracy.Sorry, but you must be logged in to rate this tab.
Click here to log-in, or you can click here to register.
(Registration is free)

All songs owned by corresponding publishing company. If you make copies of any song on this website, be sure to report your usage to CCLI.
Author/Artist: Eli
Title: God Weeps Too
Album: Things I Prayed For
Transcribed by: Matt Gates
Email: aslane@juno.com

Lyrics posted with express permission from Eli

I've never seen this song transcribed so here it is.
I've transcribed the solo acoustic and the acoustic lead stuff, but I
didn't mess with the Ebowed guitar in the background.


------------0-----------------0------------------0-----------------0----------
--3------3--------3--3-----3--------3--3------3---------3--3-----3------------
-------0--------0--------0--------0---------0---------0--------0--------------
-----0--------0--------0--------0---------0---------0--------0----------------
--2---------2--------3--------3--------2---------2---------3-------3----------
------------------------------------------------------------------------------
  Intro:                                                                      

------------------------------------------------------------------------------
------------5--7-----------------------------------------7-8--10--12\---------
--6h7vvvvv-------7vvvv--4-7-5vvv--4-------------4-5-7vvv--------------7-7vv---
-------------------------------------7--5vvvv---------------------------------
------------------------------------------------------------------------------
------------------------------------------------------------------------------
  Intro Lead Guitar 2:                                                        

----7-10-8-7------------------------------------------------------------------
---8----------10vv-8-10-10b11r10-8-8vvv---------------------------------------
--9---------------------------------------------------------------------------
------------------------------------------------------------------------------
------------------------------------------------------------------------------
------------------------------------------------------------------------------
                                                                              

-------------------------------0----------------------------2------2-0-----0--
-3------3--3------3--3------3--------3--3------3--3------3-------3-------3----
------0---------0---------0--------0---------0---------0-------2-------2------
----0---------0---------0--------0---------0---------0------0--------0--------
-2---------2---------3---------3--------2---------2---------------------------
------------------------------------------------------------------------------
 Verse:                                                                       


-------------------------------0--------2------2------------------------------
-3------3--3------3--3------3--------3-------3----3------3--0-----0-0-----0---
------0---------0---------0--------0-------2-----------0--------0-------0-----
----0---------0---------0--------0------0------------0--------2-------2-------
-2---------2---------3---------3------------------3---------2-------2---------
------------------------------------------------------------------------------
                                                                              

------------0-----------------------------------------------------------------
--3------3--------------------------------------------------------------------
-------0----------------------------------------------------------------------
-----0------------------------------------------------------------------------
--3---------3-----------------------------------------------------------------
------------------------------------------------------------------------------
                                                                              

------------0-----------------------------------------------2-----2--0-----0--
--3------3---------3--3------3-3-----3--3------3--3------3------3--------3----
-------0---------0---------0-------0---------0---------0------2--------2------
-----0---------0---------0-------0---------0---------0------0--------0--------
--3---------3---------2--------0--------2---------3---------------------------
------------------------------------------------------------------------------
 Chorus:                                                                      

----------------------2------2----------------------2------2------------------
--3------3--3------3-------3----3------3--3------3-------3--------------------
-------0---------0-------2-----------0---------0-------2----------------------
-----0---------0------0------------0---------0------0-------------------------
--2---------3-------------------3---------2-----------------------------------
------------------------------------------------------------------------------
                                                                              

------------------------------7--10--10/12\10--8------------------------------
---4/8vvv-7h8p7--------8--10----------------------10\8vvvv--------------------
----------------9vvvv---------------------------------------------------------
------------------------------------------------------------------------------
------------------------------------------------------------------------------
------------------------------------------------------------------------------
 Solo 1 Guitar 2:                                                             

------------------------------------------------------------------------------
----------------7-----7-8-8/10vvvvv-10-8-7-------8-8-7-8p7---8p7---8p7--------
---6h7vvvv---9-----9-----------------------9vvvv-----------9-----9-----9------
------------------------------------------------------------------------------
------------------------------------------------------------------------------
------------------------------------------------------------------------------
 Solo 2 Guitar 2:                                                             

---------------------------7--10-8-7----7-------------------------------------
--10-8-7---7--------------8----------10---10-8-8\5-5\3vvvv---10b11r10-8-10vv--
---------9---9-7vvvv-----9----------------------------------------------------
------------------------------------------------------------------------------
------------------------------------------------------------------------------
------------------------------------------------------------------------------
                                                                              


God Weeps Too

Words and Music By Eli

Guitar 1 Acoustic
Guitar 2 Classical Acoustic

Intro w/Intro Lead

Verse 1:

This is for the man, who never learned to read or write
He worked two jobs instead of going to school
I know it hurt you as a child, please remember all the while
That God weeps too

Verse 2:

This is for the widow, who now must sleep alone
When the memory of a kiss will have to do
Every night when she lays down, you can almost hear the sound
When God weeps too

Chorus:

God weeps too, God weeps too
Though we question Him for all that we go through
Still it helps me believe and my pain it does relieve
When I think that, God weeps too

Intro w/Solo 1  x2

Verse 3:

And for every survivor of the wickedness of man
Whether you're a black man or a Jew
Some people kill in Jesus' name, He is not the one to blame
'Cause even God weeps too

Chorus x 2

Extro/Intro x 4 w/Solo 2 

And I never really thought about it
Not that much about it, but God weeps too  x2

Comments about this tab

No comments/corrections found. Add your own

Complimentary Christian Ringtones
Dadamobile and CGR have teamed up to bring your favorite Christian artists right to your phone. Sign up today and get 10 complementary ringtones!
Tab Country
Did you know CGR has a sister site w/ country guitar tabs? Well we do! Its called Tab Country. It has a great archive with a lot of country tabs.
Rockin Tabs
Are you looking for a site that has rock guitar tabs? Then Rockintabs.com is the place for you. It is a budding site with many rock guitar tabs. Submit your tab today.
Tab Gallery
Tab Gallery has a compilation of christian, rock, and country tabs all in one place. Come visit us.