Guitar Tabs
song title    band name

Join Us Today!

Don't strum alone...
be a part of the largest online Christian music community. Browse thousands of guitar tabs and chat w/ musicians like yourself.


It's Free!

This tab has been rated a 3.57 out of 5 for accuracy. (7 votes)Sorry, but you must be logged in to rate this tab.
Click here to log-in, or you can click here to register.
(Registration is free)

All songs owned by corresponding publishing company. If you make copies of any song on this website, be sure to report your usage to CCLI.
Submitted by: mmmskittles

----------------------------------------------------------------------------
	           AMERICAN KRYPTONITE - Five Iron Frenzy
----------------------------------------------------------------------------
Tabbed by: me
Email: skemo_the_fish@hotmail.com

Tuning: Standard

| /   slide up
| \   slide down
| h   hammer-on
| p   pull-off
| ~   let ring
| <>  harmonic
| x   Mute note
| *   Palm mute

This is an awesome song off of "The End is Near", which is FiF's last--and
best--album. ever. that's right.___.

...ok, so that's all you really need to know unless you're new at electric
guitar like me and don't know what a harmonic is...like me...before...well
so if you don't know what a harmonic is just try to LIGHTLY, BARELY touch
the E string right between the 3rd and 4th fret and strike the string hard
and it should make the sound it makes in the song.

 Intro

e|-----------------------|
B|-----------------------|
G|-----------------------|
D|-----------------------| (x8) then it goes to
A|-----------------------|
E|--0-0-<3>-0-0-0-<3>-0--|


e|-------------------|
B|-------------------|
G|-------------------|
D|--2-2-2-x-2-2-2-x--|  (x8)
A|--2-2-2-x-2-2-2-x--|
E|--0-0-0-x-0-0-0-x--|

 Verse

e|------------------------------------------|
B|------------------------------------------|
G|------------555--555----------------------|       
D|--222--222--555--555--555--555--777--777--|  (x2) 
A|--222--222--333--333--555--555--777--777--|
E|--000--000------------333--333--555--555--|
    ***  ***  ***  ***  ***  ***  ***  ***
 then (x2) again but without the palm muting

 Chorus

e|----------------------------------|
B|----------------------------------|
G|--44--44--------------------------|
D|--4444445555555-7777777777777777--|  (x2)
A|--2244225555555-5554445554445544--|
E|----22--3333333-------------------|

e|-------------------------------------------------------------------------|
B|-------------------------------------------------------------------------|
G|--444444--------777777------------------------------7-7~-----------------|
D|--444444-555555-777777-777777-------55555555--7777--7-7~-----------------|
A|--222222-555555-555555-777777-------55555555--7777--5-5~-----------------|
E|---------333333--------555555-------33333333--5555--5-5~-----------------|

Then basically play everything you just played over again. and it's time for
the bridge.

  *BRIDGE*!
                                                                               
e|-------------------------------------------------------------------------|
B|-------------------------------------------------------------------------|
G|--9---7---7---11-9-3--(x2)--99999999-77777777----------------------------|
D|--x---x---x---x--x-x--------xxxxxxxx-xxxxxxxx-99999999-1010101010101010--|
A|--7---5---5---9--7-5--------77777777-55555555-xxxxxxxx-x-x-x-x-x-x-x-x---|
E|----------------------------------------------77777777-8-8-8-8-8-8-8-8---|

e|----------------------------------|
B|----------------------------------|
G|----------------------------------|
D|--22-x-x--22-x-x--22-x-x--22-x-x--|
A|--22-x-x--22-x-x--22-x-x--22-x-x--|
E|--00-x-x--00-x-x--00-x-x--00-x-x--|

e|---------------------------------------------------|
B|---------------------------------------------------|
G|-------------------------------------------10------|
D|--22x-9-8-7-x22x-7-6-5-x22x-5-4-3-x22x-7-9----8-9--| (x3)
A|--22x-------x22x-------x22x-------x22x-------------|
E|--00x-------x00x-------x00x-------x00x-------------|

e|---------------------------|
B|---------------------------|
G|---------------------------|
D|--22x222x222x222x----------|  
A|--22x222x222x222x----------|
E|--00x000x000x000x .........|

then play the chorus and then you're done!
============================================================================

Comments about this tab

lacosseboyoo7 - 2005-04-11

this is goood but how do you hammer on


cszepv - 2005-04-27

What exactly do you mean?
Do you mean what is a hammer-on? If that's what you want a hammer-on is basically when you play a string and then strike a note on that same string with your finger instead of a pick. This sort of thing is heard a lot in Classical Gas. It's pretty difficult at first but with practice you should be able to get it sounding like a normal note.
If none of that made sense to you don't worry. I have that affect on a lot of people. Just tell me what I should clarify.


Add a comment/correction

Complimentary Christian Ringtones
Dadamobile and CGR have teamed up to bring your favorite Christian artists right to your phone. Sign up today and get 10 complementary ringtones!
Tab Country
Did you know CGR has a sister site w/ country guitar tabs? Well we do! Its called Tab Country. It has a great archive with a lot of country tabs.
Rockin Tabs
Are you looking for a site that has rock guitar tabs? Then Rockintabs.com is the place for you. It is a budding site with many rock guitar tabs. Submit your tab today.
Tab Gallery
Tab Gallery has a compilation of christian, rock, and country tabs all in one place. Come visit us.