Guitar Tabs
song title    band name

Join Us Today!

Don't strum alone...
be a part of the largest online Christian music community. Browse thousands of guitar tabs and chat w/ musicians like yourself.


It's Free!

This tab has been rated a 3.33 out of 5 for accuracy. (6 votes)Sorry, but you must be logged in to rate this tab.
Click here to log-in, or you can click here to register.
(Registration is free)

All songs owned by corresponding publishing company. If you make copies of any song on this website, be sure to report your usage to CCLI.
Submitted by: overbluecity

Artist: Relient K
Album: Deck the Halls, Bruise your Hand
Song: I Hate Christmas Parties
Tabbed by: Adam Cronk

Intro:
Little guitar slide.
e|---------------------|
B|---------------------|
G|---------------------|
D|---------------------|
A|---------------------|
E|--1--1/13-12-10/9----|


Verse:
Power chords to accompany the piano.
e|-------------------------------------------------------------------------|
B|-------------------------------------------------------------------------|
G|-------------------------------------------------------------------------|
D|-33333333/15151515-14141414-1212121212121212-1010101010101010------------|
A|-33333333/15151515-15151515-1212121212121212-1111111111111111------------|
E|-11111111/13131313-12121212-1010101010101010-9-9-9-9-9-9-9-9-------------|

Chorus:
e|-------------------------------------
B|-------------------------------------
G|-33333333-55555555-55555555----------
D|-11111111-55555555-77777777-55555555-
A|-11111111-33333333-77777777-55555555-
E|----------------------------33333333-

e|-------------------------------------|
B|-------------------------------------|
G|-33333333-55555555-------------------|
D|-33333333-55555555-3333333333333333--|
A|-11111111-33333333-3333333333333333--|
E|-------------------1111111111111111--|

Bridge:
e|------------------------------|
B|------------------------------|
G|-3-----------3----------------|
D|-3--3--5--7--3--3--5--7-------|
A|-1--3--5--7--1--3--5--7--5-3--|
E|----1--3--5-----1--3--5------1|

There ya go kiddos!!!
Pretty sure it's right.
If it's not... too bad... find another one.
Christcore Hardcore!!!

Comments about this tab

McFly - 2004-07-21

this is pretty accurate, except for the bridge, it doesn't sound right to me, but i'm not sure how to play it...


PacersandIU - 2005-12-05

I'm still a little shakey on the "falalalalalala" part, but otherwise nice tab, I don't know who pulled the rating so low, but it's by far the best tab of this song I've seen...good job! <>< God Bless


cannonball121ep - 2006-01-03

ummm i think it's pretty acurate........
hey i was just wondering.......did any of u know th@ this song is'nt really relient k?it's Matthew Thiessen and the Earthquakes?not th@ it really has much 2 do with your tab but i just thought i'd see how many people knew th@?


Kazuki-chan - 2006-09-29

Hey, haven't played it yet, but it looks better than the other one. I'm glad you added the guitar parts too, instead of just the piano being played on guitar. Nice work!


Add a comment/correction

Complimentary Christian Ringtones
Dadamobile and CGR have teamed up to bring your favorite Christian artists right to your phone. Sign up today and get 10 complementary ringtones!
Tab Country
Did you know CGR has a sister site w/ country guitar tabs? Well we do! Its called Tab Country. It has a great archive with a lot of country tabs.
Rockin Tabs
Are you looking for a site that has rock guitar tabs? Then Rockintabs.com is the place for you. It is a budding site with many rock guitar tabs. Submit your tab today.
Tab Gallery
Tab Gallery has a compilation of christian, rock, and country tabs all in one place. Come visit us.