Guitar Tabs
song title    band name

Join Us Today!

Don't strum alone...
be a part of the largest online Christian music community. Browse thousands of guitar tabs and chat w/ musicians like yourself.


It's Free!

This tab has been rated a 2.00 out of 5 for accuracy. (1 vote)Sorry, but you must be logged in to rate this tab.
Click here to log-in, or you can click here to register.
(Registration is free)

All songs owned by corresponding publishing company. If you make copies of any song on this website, be sure to report your usage to CCLI.
Submitted by: Lancealittle33

Artist-Anberlin
Title-Change the world
tab by- Lancealittle33@aol.com

After the the 3 chords in the intro, there is a harmonics instead of just pm.
it's like...
e--------------------------
B---------------------------
G--these are the harmonics--
D--(2.7)-(2.7)-(2.7)-(2.7)--
A--(2.7)-(2.7)-(2.7)-(2.7)--
D--(2.7)-(2.7)-(2.7)-(2.7)--
The other versions verse are a little wrong, heres the right way:
slight pm....
e--------------------------
B-6-5------8-6---5-6-------
G-----5-7------------------
D--------------------------
A--------------------------
D--------------------------
The solo before the 2nd verse is something like this, I think? could be wrong?
e-------------------------------------
B-------------------------------------
G-------------------------------------
D------------------------------5-5-5-2x
A--0-0-5-5-0-0-0-0-0-5-5-0-0-0-5-5-5--
D------------------------------5-5-5--
I'm not sure how many times you hit the 5's and o's just listen to the song to
get the rhythm.
and at 2:53 there is a cool little lead behind the rhythm guitar I think it's
something like this....??
e----------------------------------
B-6-5-----6-5------------5-6-5-----
G-----7-5-----7-5----7-5-------7-5-
D----------------------------------
A----------------------------------
D----------------------------------
The other tabs have the rest of the chords to the song and I think they
are pretty good...(execpt the fact that there are upside down)hehe
this is only my like 3rd tab so if any comments or corrections email me
at Lancealittle33@aol.com

Comments about this tab

Adam K - 2004-05-26

The solo before the 2nd verse is like this
D[----------------------555555-]
A[-3h5-555555-3h5-555555555555-]x2
D[-----333333-----333333555555-]


aznguitarist28 - 2004-12-31

for the verse im pretty sure its like this
-----------------------------
-----------------------------
--10--9--7/9-12-10-9h10------
-0---0-----------------------
-----------------------------
-----------------------------
* * <--mute the open string


aznguitarist28 - 2004-12-31

well looks like the mute part got messed up... but heres the intro
GTR 1
-----------------------------------------
-----------------------------------------
-7777-7777-7777-5555-9999-9999-9999-xxxx-
------------------------------------xxxx-
-5555-5555-5555-3333-7777-7777-7777-xxxx-
-----------------------------------------

GTR 2: slightly distance or faded
-----------------------------------------
-----------------------------------------
------------------------------------xxxx-
-7777-7777-7777-5555-5555-5555-5555-xxxx-
-5555-5555-5555-3333-3333-3333-3333-xxxx-
-----------------------------------------

GTR 1 and 2:
-----------------------------------------------------------
------------------------------------------------------------
-77----7----99-----1010----10----1010------10-10-10-10------
----0----0-----0--------0-----0-------0-----8--8--8--8------
-55-0--5-0--77-0---8-8--0--8--0--8-8--0-----8--8--8--8-.....
----0----0-----0--------0-----0-------0-----8--8--8--8------

the spacing might be messed up but you guyz should kno the rythem. well tats as close as i can get so correct me if im wrong.


Add a comment/correction

Complimentary Christian Ringtones
Dadamobile and CGR have teamed up to bring your favorite Christian artists right to your phone. Sign up today and get 10 complementary ringtones!
Tab Country
Did you know CGR has a sister site w/ country guitar tabs? Well we do! Its called Tab Country. It has a great archive with a lot of country tabs.
Rockin Tabs
Are you looking for a site that has rock guitar tabs? Then Rockintabs.com is the place for you. It is a budding site with many rock guitar tabs. Submit your tab today.
Tab Gallery
Tab Gallery has a compilation of christian, rock, and country tabs all in one place. Come visit us.